Chordie logo

2 Become 1  Spice Girls

[G#m]Bbm [-]-  [466444]x13321
B - x24442
C# - x46664
[F#]A -[-]    [244322]x02220
E - 022100


Intro: Ebm-C#/F-F#-G#m-Ebm-C#/F-F#-C#


Violin:
   [Ebm]      [C#/F]       [F#]     [G#m]                                    
e|-13--|-9----|-6--|-----|

B|-----|------|----|-2---|
G|-----|------|----|-----|
D|-----|------|----|-----|
A|-----|------|----|-----|
E|-----|------|----|-----|

   [Ebm]        [C#/F]         [F#]           [C#]                          
e|-----9-|------|-------6-|-7-9-11-13-|

B|-6-7---|-9----|-6-7-9---|-----------|
G|-------|------|---------|-----------|
D|-------|------|---------|-----------|
A|-------|------|---------|-----------|
E|-------|------|---------|-----------|


Verse 1:
[Ebm]Candle light and [C#/F]soul forever
a [F#]dream of you and [G#m]me together
[Ebm]Say you be[C#/F]lieve it [F#]say you be[G#m]lieve it
[Ebm]Free your mind from [C#/F]doubt and danger
[F#]Be for real don't [G#m]be a stranger
[Ebm]We can a[C#/F]chieve it [F#]we can a[G#m]chieve it


Refrain 1:
[B]  Come a little bit
[Bbm]closer baby[G#m] get
it on [C#]get it on
Cause to[B]night is
the [Bbm]night when
two [G#m]become [C#]one


Guitar 2: in "coz tonight" same with refrain 2 and 3
e|-----9--9-----9----|

B|-6h7------7-7----9-|
G|-------------------|
D|-------------------|
A|-------------------|
E|-------------------|


Chorus 1:
I [F#]need some love like
I [C#]never needed love [B]before
(wanna make love to ya [C#]baby)
I [F#]had a little love
[C#]  now I'm back for [B]more
(wanna make love to ya [C#]baby)
[E]Set your spirit [F#]free
it's the [A]only [B]way to [F#]be


Verse 2:
[Ebm]Silly games that
[C#/F]you were playing
[F#]Empty words we
[G#m]both were saying
[Ebm]Let's work it [C#/F]out boy
[F#]let's work it [G#m]out boy
[Ebm]Any deal that
[C#/F]we endeavour
[F#]Boys and girls
are [G#m]good together
[Ebm]Take it or [C#/F]leave it
[F#]take it or [G#m]leave it


Refrain 2:
[B]  Are you as good as
I [Bbm]remember baby[G#m] get
it on [C#]get it on
Cause to[B]night is
the [Bbm]night when
[G#m]two become [C#]one


(Repeat Chorus 1)


Interlude: Ebm-C#-B-- x2

Guitar 2:
     [F#]                                                    
E|-6h7-9-7-6--|

B|---------------------|
G|---------------------|
D|---------------------|
A|---------------------|
E|---------------------|

   [Ebm]          [C#]            [B]                                
e|-----|------------|--------------|

B|-7---|-6h7p6------|--------------|
G|-----|-------8--6-|-8---6----6---|
D|-----|------------|-------9----8-|
A|-----|------------|--------------|
E|-----|------------|--------------|

    [Ebm]       [C#]                   [B]                          
e|------|------|---------------------------9h11-|

B|-7--7-|-6--6-|--------------------110h11------|
G|------|------|-8--8---8-8-8h10-11-------------|
D|------|------|--------------------------------|
A|------|------|--------------------------------|
E|------|------|--------------------------------|


Refrain 3:
[B]  Be a little bit [Bbm]wiser baby
[G#m]  put it on[C#] put it on
Cause to[B]night is the
[Bbm]night when [G#m]two become [C#]one


Chorus 2:
I [F#]need some love like
I [C#]never needed love [B]before
(wanna make love to ya [C#]baby)
I [F#]had a little love
[C#]  now I'm back for [B]more
(wanna make love to ya [C#]baby)
I [F#]need some love like
I [C#]never needed love [B]before
(wanna make love to ya [C#]baby)
I [F#]had a little love
[C#]  now I'm back for [B]more
(wanna make love to ya [C#]baby)
[E]Set your spirit [F#]free
it's the [A]only [B]way to [F#]be


Outro:

It's the only way to be

It's the only way to be

Important: The song above is NOT stored on the Chordie server. The original song is hosted at www.guitaretab.com. Chordie works as a search engine and provides on-the-fly formatting. Chordie does not index songs against artists/composers will. To remove this song please click here.

A B Bbm C# C#/F E Ebm F# G#m
variations - click chord images

Login - add to songbook

Transpose chords

Tuning

Rating click stars to rate

Layout
Accuracy

SHARE PAGE  



You need to log in to post comments