"yes"; ?> Viva Forever by Spice Girls - guitar chords, guitar tabs and lyrics - chordie

Viva Forever

Spice Girls

 F#-244322

Intro: Ebm--Bbm--B--F#- x3


Spanish Guitar:
B F# Break
e|---6h7---|-6--7-9-11-|-7p6----7p6--------------------------------|
B|-7-----9-|-----------|-----9--------7---7---7--------------------|
G|---------|-----------|------------8---7---6---8-7-6--------------|
D|---------|-----------|-------------------------------9-8-7-------|
A|---------|-----------|-------------------------------------9-8-7-|
E|---------|-----------|-------------------------------------------|


 F#
e|---6--|-6-6-6-6-7-9-9h11-11p9-|-9p7--7--6h7------------6h7-|-7p6--6-------|
B|-7----|-----------------------|--------------7-7-7-7h9-----|---------9h11-|
G|------|-----------------------|----------------------------|--------------|
D|------|-----------------------|----------------------------|--------------|
A|------|-----------------------|----------------------------|--------------|
E|------|-----------------------|----------------------------|--------------|


Verse 1:
 Ebm
 Do you still remember
 Bbm
 how we used to be
 B
 feeling together believe
 F#
in whatever my love
has said to me
 Ebm
 Both of use we're dreamers
 Bbm
 young love in the sun
 B
 felt like my savior my
spirit i gave you we'd
 F#
 only just begun

Refrain:
 EbmBbm
 Hasta Mañana
 BF#
 Always be mine

Chorus:
 EbmBbm
Viva forever I'll be waiting
 BF#
Everlasting like the sun
 EbmBbm
live forever for the moment
 BF#
ever searching for the one

Verse 2:
 Ebm
 Yes I still remember
 Bbm
 every whisphered word
 B
the touch of your skin
giving life from within
 F#
like a love song
that i'd heard
 Ebm
Slipping through our fingers
 Bbm
 like the sands of time
 B
 promises made every
memories saved has
 F#
reflections in my mind

(Repeat Refrain and Chorus)

Interlude: Ebm-Bbm-B-F# x3

Spanish Guitar:
 F#
e|-6-6-6-----|
B|-------9-7-|
G|-----------|
D|-----------|
A|-----------|
E|-----------|


Spanish Guitar:
 F#
e|---------6-6-6-----|--------------------|-9--9p7--7-7-7---7-|-7-6-6--6-6-6-----|
B|-6--7-7--------9-7-|-6--6-----------6h7-|---------------7---|--------------9-7-|
G|-------------------|------6---6-6h8-----|-------------------|------------------|
D|-------------------|--------------------|-------------------|------------------|
A|-------------------|--------------------|-------------------|------------------|
E|-------------------|--------------------|-------------------|------------------|


 F#
e|---------6-6-6-----|--------------------|-9p7--7--7-7-7---7-|-7-6-6------------6h7-9h11-|
B|-6-------------9-7-|-6--6-----------6h7-|---------------7---|------------6h7-9----------|
G|----8-8------------|------6---6-6h8-----|-------------------|--------6h8----------------|
D|-------------------|--------------------|-------------------|---------------------------|
A|-------------------|--------------------|-------------------|---------------------------|
E|-------------------|--------------------|-------------------|---------------------------|


 EbmBbmBF#
e|------|------|------|-6h7-7h9-9h11-|
B|------|------|------|--------------|
G|------|------|------|--------------|
D|-idle-|-idle-|-idle-|--------------|
A|------|------|------|--------------|
E|------|------|------|--------------|


Violin:
 EbmBbmBF#
e|-14--11-|-13--9-|-11-13-14--16-|-18-|
B|--------|-------|--------------|----|
G|--------|-------|--------------|----|
D|--------|-------|--------------|----|
A|--------|-------|--------------|----|
E|--------|-------|--------------|----|


Verse 3:
 Ebm
 But We're all alone now
 Bbm
 was it just a dream
 B
 feelings untold they
will never be sold and
 F#
the secret's safe with me

(Repeat Refrain and Chorus x4)


B Bbm Ebm F#
variations - click chord images
Transpose chords:
Tuning:
Cool service:
View: Size:
A  A  A
Rating:
Layout:
  • Currently 2.8/5 Stars.
  • 1
  • 2
  • 3
  • 4
  • 5
 
Accuracy:
  • Currently 3.2/5 Stars.
  • 1
  • 2
  • 3
  • 4
  • 5
 
click stars to rate
Chordie recommends:
Learn to play guitar with video-based, online guitar lessons at JamPlay.com
Songbook:
Login to add this song to your songbook
Support the artist
Preview/buy this song
MSN Music
Why this non-profit ad?

 
login to add comments/video/corrections