Guitar Tabs, Chords and Lyrics


All Over You  Canvas Spill

  [Am]                                                                                             
E|----------------------------------|
B|----------------------------------|
G|----------------------------------|
D|-2-2-2-2-2-2-2-2/5-5-5-3-3-3-2-2--|
A|-0-0-0-0-0-0-0-0-0-0-0-0-0-0-0-0--|
E|----------------------------------|

  [F]                                                                                             
E|----------------------------------|
B|----------------------------------|
G|----------------------------------|
D|-----------------2-2-2-0-0-0-2-2--|
A|-3-3-3-3-3-3-3-3-3-3-3-3-3-3-3-3--|
E|-1-1-1-1-1-1-1-1-1-1-1-1-1-1-1-1--|         x2



verse:
[Am]Yeah, he's a looker,
But I really think it's [F]guts that matter most
I [C]displayed them for you
Strewn [F]out about from coast to coast

[Am]I am easily make believe
[F]Just dress me up in what you want me to be
[C]I'll take back what [F]I've been saying

For quite some time now


Chorus:
[G]I gotta feel you [Am]in my bones ag[F]ain

I'm all over you

I'm not over you
[G]I wanna taste you [Am]one more time a[F]gain

I'm all over you
I'm not over you [Am]

  [Am]                                                                                             
E|----------------------------------|
B|----------------------------------|
G|----------------------------------|
D|-2-2-2-2-2-2-2-2/5-5-5-3-3-3-2-2--|
A|-0-0-0-0-0-0-0-0-0-0-0-0-0-0-0-0--|
E|----------------------------------|

  [F]                                                                                             
E|----------------------------------|
B|----------------------------------|
G|----------------------------------|
D|-----------------2-2-2-0-0-0-2-2--|
A|-3-3-3-3-3-3-3-3-3-3-3-3-3-3-3-3--|
E|-1-1-1-1-1-1-1-1-1-1-1-1-1-1-1-1--|


Verse:
[Am]In my daydreams, in my sleep
[F]Infatuation turning into disease
[C]You could cure me
[F]See all you have to do now is please [Am]try

Give it your best shot and [F]try
All I'm asking for is [C]love
But you never seem to [F]have enough

Chorus:
[G]I gotta feel you [Am]in my bones ag[F]ain

I'm all over you
[F]I'm not over you
[G]I wanna taste you [Am]one more time a[F]gain

I'm all over you
[F]I'm not over you

[G]This life is [Am]way too short
To ge[F]t caught up in all this stuff
When [G]i just want you to [Am]love me bac[F]k
Why can't you just love me [Am]back

Bridge: (its a little tricky here, basically the bridge goes Am - Am - C - F,
just count 8 beats each if u cant get the timing right)

[Am]   [-]  [Am]   [-]  [C]                           
[F]Why can't you just [Am]love me back?
(Why can't you?,[C] why can't you?) [F]
Why can't you just [Am]love me back?
(Why can't you?,[C] why can't you?) [F]
Why can't you just [Am]love me back?
C F (break)
(Why can't you?, why can't you just love?)


(little riff back to the chorus)
E|-------------------------|
B|-------------------------|
G|-------------------------|
D|--2-0--------------------|
A|------3-2----------------|
E|----------3--------------|



Chorus/Outro:
[G]I've gotta feel you [Am]in my bones a[F]gain

I'm all over you

I'm not over you
[G]I wanna taste you [Am]one more time a[F]gain

(Just one more time)

[G]This life is [Am]way too short
To ge[F]t caught up and all mixed up
When [G]I just want you to [Am]love me bac[F]k
Why can't you just love me [Am]back?

(intro riff x2)

[F]Why won't you just love me [Am]back?
[F]Why can't you just love me [Am]back?

End on Am

Important: The song above is NOT stored on the Chordie server. The original song is hosted at www.guitaretab.com. Chordie works as a search engine and provides on-the-fly formatting. Chordie does not index songs against artists'/composers' will. To remove this song please click here.

Text color:
Chord color:
Chord grids: 
Font size:    
Page size: 

Am C F G
variations - click chord images

Login - add to songbook

Transpose chords

Tuning

Rating click stars to rate

Layout
Accuracy

SHARE PAGE  




You need to log in to post comments