Guitar Tabs, Chords and Lyrics


Sex Farm   Spinal Tap



intro riff:
e|---------------------------------------|
B|---------------------------------------|
G|---2-2---2-5-2---7--2-9--5-2-----------|
D|-5-2-2-5-2-5-2---7--2-9--5-2-----------|
A|-5-0-0-5-0-3-0---5--0-7--3-0-----------|
E|-3-----3-------------------------------|

lead:
e|-3h5------3----------------------------|
B|------3/5-3--3b5-3-1-1---1-1/3-3/5-----|
G|-----------------------2-----------5-2-|
D|---------------------------------------|
A|---------------------------------------|
E|---------------------------------------|

main riff:
e|---------------------4-3---------------|
B|---------------------4-3-6-3-----------|
G|-------------------------5-2-----------|
D|-5-7-5--5-7-5--5-7-5-------------------|x3
A|---------------------------------------|
E|---------------------------------------|
then
e|---------------------------------------|
B|-------------------5-6-7/9----3-4-5----|
G|---------------7-8----------5----------|
D|-5-7-5--5-7-5--------------------------|
A|---------------------------------------|
E|---------------------------------------|
play riff again

Chorus:
e|---------------------------------------|
B|---------------------------------------|
G|-7-7-7--4-----4------------------------|
D|-7-7-7--4--7--4------------------------|x4
A|-5-5-5--2--7--2------------------------|
E|-----------5---------------------------|

e|---------------------------------------|
B|---------------------------------------|
G|-9-9-9--6-----6--9-9-9--6--------------|
D|-9-9-9--6--9--6--9-9-9--6--------------|
A|-7-7-7--4--9--4--7-7-7--4--------------|
E|-----------7---------------------------|

Can't u see my saddle rising high...
e|---------------------------------------|
B|---------------------------------------|
G|---------------------------------------|You get the idea.
D|---------------------------------------|(palm muted)
A|-4444444444444444----------------------|
E|-2222222222222222----------------------|

You just play those riffs over and over in the order they come in on the album. This is 
sick song, so have fun with it.

/................................slide up
b................................Bend
h................................hammer on



Important: The song above is NOT stored on the Chordie server. The original song is hosted at www.guitaretab.com. Chordie works as a search engine and provides on-the-fly formatting. Chordie does not index songs against artists/composers will. To remove this song please click here.

This song is displayed as text-only. Transposing and tuning is only available for chordpro-songs.

Login - add to songbook

Rating click stars to rate

Layout
Accuracy

SHARE PAGE  




You need to log in to post comments