"yes"; ?> I Think God Can Explain by Splender - guitar chords, guitar tabs and lyrics - chordie

I Think God Can Explain

Splender

 CDEmGD/F#Cadd9
E       0       2       0       3       2       0
B 1 3 0 3 3 3
G 0 2 0 0 2 0
D 2 0 2 0 0 0
A 3 0 2 2 0 3
E X X 0 3 2 X

INTRO
C D Em Fill 1
e-----------------------------------------------------------
b--3-----3---3-----3h5-3-0h1-0------------------------------
g----0---------0----------------repeat----------0-----------
d------0---------0-------------------------------0----------
a-----------------------------------------0-2-3---3p2-0-----
e-----------------------------------------------------------

VERSE
There?s a lot of things, I understand
 CDEm
And there?s a lot of things, that I don?t wanna know.
 CDEmD/F#G
But you?re the only face, I recognize.
 CDEm
It?s So damn sweet of you, to look me in the eyes.
 CDEmD/F#G
CHORUS
It?s alright, I?m OK, I think God can explain
C D G (fill 1)

I believe I?m the same, I get carried away.
C D G (fill 1)

It?s alright, I?m OK, I think God can explain
C D G (fill 1)

I?m releived, Im relaxed, I?ll get over it yet.
C D G (fill 1)

VERSE 2
The scent of vaseline in the summertime.
 CDEm
The feel of an ice cube, melting over time.
 CDEmD/F#G
The world seems bigger, than both of us.
 CDEm
But it seems so small, when I begin to climb.
 CDEmD/F#G
 REPEAT CHORUS                                       

BRIDGE
 CG
e-----------------------------------------------------------
b-----------------------------------------------------------
g----0----0---0-----0---0----------repeat 4X----------------
d---0---0----0-----0---0------------------------------------
a--3---3----3-----------------------------------------------
e-----------------3---3-------------------------------------


REPEAT CHORUS

OUTRO (Over Original Chorus)
 CDG
e-----------------------------------------------------------
b-----------------------------------------------------------
g---7-5-4-2-2-2h4-2-0---0---------0-----------REPEAT 4X-----
d---------------------0-------------0-----------------------
a---------------------------0-2-3-----3p2-0-----------------
e-----------------------------------------------------------


 CBABG
e------------------0----------------------------------------
b----------0-------0-----0----------------------------------
g--5---4---2---4---0-------0--------------------------------
d--5---4---2---4---0---0-----0------------------------------
a--3---2---0---2---2-----------0-0h2------------------------
e------------------3----------------------------------------				



A B C Cadd9 D D/F# Em G
variations - click chord images
Transpose chords:
Tuning:
Cool service:
View: Size:
A  A  A
Rating:
Layout:
  • Currently 3.6/5 Stars.
  • 1
  • 2
  • 3
  • 4
  • 5
 
Accuracy:
  • Currently 3.1/5 Stars.
  • 1
  • 2
  • 3
  • 4
  • 5
 
click stars to rate
Chordie recommends:
Check out JamPlay.com for online video guitar lessons
Songbook:
Login to add this song to your songbook
Support the artist
Preview/buy this song
MSN Music
Why this non-profit ad?

 
login to add comments/video/corrections