Pasubali Acoustic

Spongecola

E|---------------------------------|

B|---------------------------------|
G|---------------------------------|
D|--/8------8--10---7-----7--8-----|
A|------10-------------8-----------|
E|---------------------------------|
 BbDEbEb
e|---------------------------------------------------------------------------|
B|---------------------------------------------------------------------------|
G|--3---3---3-------7----7----7----------8-----8----8-------8-----8-----8----|
D|----3---3------------7---7----------------8----8-------------8-----8-------|
A|--1---------------5--------------------6------------------6----------------|
E|---------------------------------------------------------------------------|


 BbD
Kung pwede lang wag mo na tong iwasan
 EbEb
At wag mo ring ituring na biro
 BbD
Marahil ito'y di mo inaasahan
 EbEb
Pero sana'y wag ipinid ang pinto

Refrain

 GmF
Itikom ang bibig
 Eb
Mata'y ibaling sakin
 GmFEb
Pakinggan mo ang sasabihin ko

Chorus (STRUMMING)
 BbDEbEb
 Bb
Kailan mo ba matututunan
 D
Kailan mo ba pagsisigawan
 EbEb
Na di mo na pagkakailang tayo
 Bb
Kayrami nang pinagdaanan
 D
Ano pa ba ang iyong kailangan
 EbEb
Nagsusumamo na sabihin mo  

Verse 2 (same chords as verse 1)

Ang diwa ko'y tigib sa kaiisip
Sa sarili laging may kinikimkim
Patuloy lamang bang mananaginip
At mananatili lang na nakapikit

Refrain 2 (same as refrain 1 Strumming)

Ako'y mayrong batid
Ito'y iyong pag amin
Hindi na natin maiiwasan to

Chorus

Kailan mo ba matututunan
Kailan mo ba pagsisigawan
Na di mo na pagkakailang tayo
Kayrami nang pinagdaanan
Ano pa ba ang iyong kailangan
Nagsusumamo na sabihin mo

Refrain

Itikom ang bibig
Mata'y ibaling sakin
Pakinggan mo ang sasabihin ko

ADlib

Chorus
 EbEb
      Nagsusumamo na sabihin mo

 BbDEb--
  hooohhh  hooooohh


Bb D Eb F Gm
variations - click chord images
Transpose chords:
Tuning:
Cool service:
View: Size:
A  A  A
Rating:
Layout:
  • Currently 3.3/5 Stars.
  • 1
  • 2
  • 3
  • 4
  • 5
 
Accuracy:
  • Currently 2.6/5 Stars.
  • 1
  • 2
  • 3
  • 4
  • 5
 
click stars to rate
Chordie recommends:
Get acoustic guitar lessons and electric guitar lessons at JamPlay.com
Songbook:
Login to add this song to your songbook
Support the artist
Preview/buy this song
MSN Music
Why this non-profit ad?

 
login to add comments/video/corrections