Chordie logo

Klsp  Spongecola

e|-----6------------------|


B|--3~----3------------3--|


G|-----------5--3--5------|   3x


D|------------------------|


A|------------------------|


E|------------------------|




e|----6--------------------|


B|--3----3--------------3--|


G|----------5--3--3h5------|   1x


D|-------------------------|  


A|-------------------------|   ulitin mo ulit ung sa taas


E|-------------------------|





Sino[Bb/A] tong nakatin[Gm]gin?

Anghe[Eb]l bang magliligtas sa kin

[Bb]Mga mat[Gm]a'y kanyang minu[F#-G#]lat sa pagdadalamhati


VERSE 2:

Hi[Bb/A]nahanap sa ku[Gm]ng saan

Pakpak[Eb] na hindi mahagilap

[Bb]Ninanai[Gm]s ko lang naman [F#-G#]na mabigyan ng


CHORUS:
[Bb]Kailangan [Bb/A]lang pagbigyan  [Gm]

Kulang lang [F#-G#]sa pansin


VERSE 3:

Na[Bb/A]kahanap ka p[Gm]a ba

Ng[Eb] ibang taga-lupa

[Bb]Aking t[Gm]inig ay iyong di[F#-G#]nggin



CHORUS:
[Bb]Kailangan [Bb/A]lang pagbigyan  [Gm]

Kulang lang [F#-G#]sa pansin


BRIDGE:

[F#]Nauubos din[G#] ang luha  [F#]

Natutu[G#]yo at nawawa[B]la

[A]Naglalaho rin [G#]pala


e|-----6------------------|
B|--3~----3------------3--|
G|-----------5--3--5------|   3x
D|------------------------|
A|------------------------|
E|------------------------|
e|----6--------------------|
B|--3----3--------------3--|
G|----------5--3--3h5------|   1x
D|-------------------------|
A|-------------------------|   ulitin mo lng
E|-------------------------|



CHORUS:
[Bb]Kailangan [Bb/A]lang pagbigyan  [Gm]

Kulang lang [F#-G#]sa pansin


[Bb]Kulang lang sa[Bb/A]..
kulang lang sa pansin[Gm]..
kulang lang sa..  [F#-G#]

BinAbAti kOh lAng uNG mgA kAbAndA kOH cLA:

Lancer(dRummEr)
dAvE(LeAd)
mAynArd(BasS)
hArOld(oRgAn)
aRjhAy"aKo"(rHytHm)
rEnIeL(tAgA pAlAkpAk)

kAmi nGa pLa AnG bAndANG >>>twisT<<<

kUng mY sUggEstion kAu cnd nyo sa friendster koH
>>arjaytrix22@yahoo.com<<

visit nyo website ko my mga chord at tab din d2

>>>www.xanga.com/frenzy_arjay<<<

Important: The song above is NOT stored on the Chordie server. The original song is hosted at www.guitaretab.com. Chordie works as a search engine and provides on-the-fly formatting. Chordie does not index songs against artists/composers will. To remove this song please click here.

A B Bb Eb F# G# Gm
variations - click chord images

Login - add to songbook

Transpose chords

Tuning

Rating click stars to rate

Layout
Accuracy

SHARE PAGE  

You need to log in to post comments