I Am Anastasia

Sponge

 AmCDE
 --0--  --0--  --0--  --0--
 --1--  --1--  --3--  --0--
 --2--  --0--  --2--  --1--
 --2--  --2--  --0--  --2--
 --0--  --3--  --0--  --2--
 --0--  --0--  --2--  --0--


Intro:

E--------------|--------------|--------------|-------------|
B--10--10--10--|--10--10--10--|--10--10--10--|-------------|
G-9---9---9----|-7---7---7----|-9---9---9----|---9--9---9--|
D--------------|--------------|--------------|-9---9--9----|  Repeat x2
A--------------|--------------|--------------|-------------|
E--------------|--------------|--------------|-------------|


 AmCDE
E---------------|---------------|---------------|-------------------|
B---------------|---------------|---------------|-------------------|
G--5-5-5-5-5----|--5-5-5-5-5----|--5-5-5-5-5----|-------------------|
D------------7--|------------7--|------------7--|--9-9-9-9-9-6------|
A---------------|---------------|---------------|-------------------|
E---------------|---------------|---------------|-------------------|

 AmCDE
E---------------|---------------|---------------|-------------------|
B---------------|---------------|---------------|--9-9-9-9-9--------|
G--5-5-5-5-5----|--5-5-5-5-5----|--5-5-5-5-5----|------------6(7)---|
D------------7--|------------7--|------------7--|-------------------|
A---------------|---------------|---------------|-------------------|
E---------------|---------------|---------------|-------------------|


 AmC
 I found your name in a book

 D
And in that book a letter

 E
Were the words of a girl

 Am
Who said that she was lead away

 CD
and left for dead but somehow she survived it

 E
 How was it no one would

 Am
believe that

 C
 you were

 D
part of their world, a different world

 E
 one they denied you

 Am
 If I could help you

 CD
 I would help you now

 E
And you can speak through me

 AmC
 I am I am

 DE
 I am Anastasia

 AmC
 I am I am

 DE
 I am Anastasia

 AmCDE
 Anastasia Anastasia Anastasia Anastasia

 AmCDE
 Anastasia Anastasia Anastasia Anastasia

Solo

E---------------|---------------|---------------|---------------|
B---------------|---------------|---------------|---------------|
G--5-5-5-5-5----|--5-5-5-5-5----|--5-5-5-5-5----|---------------|
D------------7--|------------7--|------------7--|--9-9-9-9-9-6--|
A---------------|---------------|---------------|---------------|
E---------------|---------------|---------------|---------------|
E---------------|---------------|---------------|-------------------|
B---------------|---------------|---------------|--9-9-9-9-9--------|
G--5-5-5-5-5----|--5-5-5-5-5----|--5-5-5-5-5----|------------6(7)---|
D------------7--|------------7--|------------7--|-------------------|
A---------------|---------------|---------------|-------------------|
E---------------|---------------|---------------|-------------------|


 AmC
 Haunted by a girl

 D
Whose life's locked in these pages

 EAm
But through these words she will be free

 CD
Through me I know I know we won't forget her
 E
She can speak through me

 AmC
 I am I am

 DE
 I am Anastasia

 AmC
 I am I am

 DE
 I am Anastasia

 AmCDE
 Anastasia Anastasia Anastasia Anastasia

 AmCDE
 Anastasia Anastasia Anastasia Anastasia

 AmC
 I am                    |
|
D E |
I am |
| Play solo through here
Am C |
I am |
|
D E |
I am Anastasia |

It goes into effects from here. Just strum the chords pattern and finish on Am.

Please send comments/corrections to jpatterson100@hotmail.com


Am C D E
variations - click chord images
Transpose chords:
Tuning:
Cool service:
View: Size:
A  A  A
Rating:
Layout:
  • Currently 3/5 Stars.
  • 1
  • 2
  • 3
  • 4
  • 5
 
Accuracy:
  • Currently 3.8/5 Stars.
  • 1
  • 2
  • 3
  • 4
  • 5
 
click stars to rate
Chordie recommends:
Learn to play songs at Jamplay.com with video guitar lessons
Songbook:
Login to add this song to your songbook
Support the artist
Preview/buy this song
MSN Music
Why this non-profit ad?

 
login to add comments/video/corrections