""; ?> Die Frisur Von Bjoern Borg by Sportfreunde Stiller - guitar chords, guitar tabs and lyrics - chordie

Die Frisur Von Bjoern Borg

Sportfreunde Stiller

-----------------------------------------------------------------

-----------------------------------------------------------------
e|---------------------------------------------------------------|
B|---------------------------------------------------------------|
G|-----9-----9--------6------------------------------------------|
D|-7-7---7-6---6--4-4---4—4\0-0—5/7------------------------------|
A|---------------------------------------------------------------|
E|---------------------------------------------------------------|
G|------9-----9--------------------------------------------------|
D|--7-7---7-6---6--4-4-4-4-4-0-0-0-------------------------------|
A|---------------------------------------------------------------|
E|---------------------------------------------------------------|

 DA
Ich hab die Beine von Briegel
 AE
Und die Arme von Pfaff
 DA
Hab den Geist von Günther Netzer
 AE
Habe Mut und auch Kraft
 DA
Hab das Gesicht von Hansi Müller
 AE
Bin kokett und auch schön
 DA
Doch da ist was das mich besorgt:
Riff1
Ich hab die Frisur von Björn Borg

Verse 2: (Riff1 all the way through)

Auf meine Treter aus Leder
Und mein Trikot aus Madrid
Waren viele Jungs neidisch
Und die Mädchen verrückt
Ich war spendabel per sè
Und willkommen auf jedem Fest
Konnte zaubern wie Pelè
Und trinken wie George Best

 DDC#BE
Refrain:

 DA
Ich hab die Beine von Briegel
 AE
Und die Arme von Pfaff
 DA
Hab den Geist von Günther Netzer
 AE
Habe Mut und auch Kraft
 DA
Hab das Gesicht von Hansi Müller
 AE
Bin kokett und auch schön
 DA
Doch da ist was das mich besorgt:

e|----------------------------------------------|
B|----------------------------------------------|
G|-----------------------------9-9-9-9-9-9------|
D|-----------------------------9-9-9-9-9-9------|
A|--000000--5-5--7777777-------7-7-7-7-7-7------|
E|----------------------------------------------|


 E
Ich war um meinen Kopfschmuck
 E
Wirklich nicht zu beneiden
 E
Also ging ich umgehend mal zum Haareschneiden
 E
Vielleicht die-die-die Lockenpracht von Valderama
 E
Del Haye's Matte wär wahrscheinlich
Auch kein Drama
Riff1 (mute)
Doch mein Friseur meinte ich wäre der Checker
Mit der Frisur von Boris Becker

 DDC#BE
Refrain:

 DA
Ich hab die Beine von Briegel
 AE
Und die Arme von Pfaff
 DA
Hab den Geist von Günther Netzer
 AE
Habe Mut und auch Kraft
 DA
Hab das Gesicht von Hansi Müller
 AE
Bin kokett und auch schön
D A (Mute)
Doch da ist was das mich besorgt:

... Ich will lieber wieder
Die Frisur von Björn Borg!!!!!!!!!

| / slide up
| \ slide down
| h hammer-on
| p pull-off
| ~ vibrato
| + harmonic
| x Mute note


A B C# D E
variations - click chord images
Transpose chords:
Tuning:
Cool service:
View: Size:
A  A  A
Rating:
Layout:
  • Currently 3.6/5 Stars.
  • 1
  • 2
  • 3
  • 4
  • 5
 
Accuracy:
  • Currently 2.9/5 Stars.
  • 1
  • 2
  • 3
  • 4
  • 5
 
click stars to rate
Chordie recommends:
Get acoustic guitar lessons and electric guitar lessons at JamPlay.com
Songbook:
Login to add this song to your songbook
Support the artist
Preview/buy this song
MSN Music
Why this non-profit ad?

 
login to add comments/video/corrections