Guitar Tabs, Chords and Lyrics


Allergic To You   Squirtgun














Squirtgun-"Allergic to You"
Album-self titled

intro=d5 c5 d5 c5 d5 c5 g5

solo (with wah wah pedal):
e-------------------|
b-------------------|
g---7-5-7-5-7-5-----|
d---------------5---|
a-------------------|
e-------------------|

bridge=f5 c5 g5

chorus=d5 f5 c5

solo#2:
e----------------------------------------------------------------|
b-------7-------5-------7---10-8-7h8p7-----7-------5-------------|
g---7-7---7-5-5---5-7-7---7------------7-7---7-5-5---5---4-5-7---|
d------------------------------------------------------5---------|
a----------------------------------------------------------------|
e----------------------------------------------------------------|


Important: The song above is NOT stored on the Chordie server. The original song is hosted at www.guitaretab.com. Chordie works as a search engine and provides on-the-fly formatting. Chordie does not index songs against artists'/composers' will. To remove this song please click here.

This song is displayed as text-only. Transposing and tuning is only available for chordpro-songs.

Login - add to songbook

Rating click stars to rate

Layout
Accuracy

SHARE PAGE  




You need to log in to post comments