Guitar Tabs, Chords and Lyrics


In Your Eyes  Staind

[.Intro./.verse.] 

comment: Hit the basstone first and then the 4 other ones.
He\'s playing it pretty gently so don\'t overdo the basstone.
[Bm]      (smtm[Asus2]s. Am variation)      [G]
Eb|-0-|    Eb|-0----|         Eb|-x-|
Bb|-3-|    Bb|-0-(1)|         Bb|-0-|
Gb|-4-|    Gb|-2----|         Gb|-4-|
Db|-4-|    Db|-2----|         Db|-5-|
Ab|-2-|    Ab|-0----|         Ab|-5-|
Eb|-x-|    Eb|-x----|         Eb|-3-|



[.pre - cborus.] 

Eb|-[A]0-|  Eb|-[D]0-|
Bb|-0-| Bb|-7-|
Gb|-6-| Gb|-7-|
Db|-7-| Db|-7-|
Ab|-7-| Ab|-5-|
Eb|-5-| Eb|-0-|

[.lead in.] 
the part when they sing in choir smthg. like \"uuuh\"

    [B5]         [A]         [G]                                                       
Eb|---|  Eb|-0-|  Eb|-x-|
Bb|---|  Bb|-0-|  Bb|-0-|
Gb|---|  Gb|-6-|  Gb|-4-|
Db|-9-|  Db|-7-|  Db|-5-|
Ab|-9-|  Ab|-7-|  Ab|-5-|
Eb|-7-|  Eb|-5-|  Eb|-3-|


[.cborus.] 
timing is pretty easy, just on every \"your eyes..\" a new chord
Eb|-[E]0-|  Eb|-[A]0-|
Bb|-0-| Bb|-0-|
Gb|-1-| Gb|-6-|
Db|-2-| Db|-7-|
Ab|-2-| Ab|-7-|
Eb|-0-| Eb|-5-|


__________
|`2.Guitar´|
¯¯¯¯¯¯¯¯¯¯
I\'ve written the scales he\'s using just
for the advanced players.

[.Intro.] 
B-minor scale
Eb|------------------------2-5-|
Bb|------------------2-3-5-----|
Gb|--------------2-4-----------|
Db|----------2-4---------------|
Ab|------2-5-------------------|
Eb|-2-5------------------------|
Eb|-------------------------------------------|
Bb|---------------------------2-----2h3p2-2---|
Gb|-----------------------------4-----------4-|
Db|---------2------------2-4------------------|
Ab|-----2-5-----5-5--2-5----------------------|
Eb|-2-5---------------------------------------|
Eb|-----------------5/7-5---------------------|
Bb|-(5)-5-5-5-5/7-5-------7-5h7-5-3h5-3-------|
Gb|-------------------------------------2--4--|
Db|-------------------------------------------|
Ab|-------------------------------------------|
Eb|-------------------------------------------|



[.Verse.] 
Advanced:
same scale like in intro so you can just improvise if u want.
In the verse Mike plays not that much. I\'m just improvising
when I play the first guitar but i don\'t wanna influence ur opinion
so do what ye want ^^


and here the original for the beginners:
here are some fills he\'s using(hard to hear)
Eb|----------|------------|-------------|---------------|
Bb|------2---|-------3p2--|-----3-----3~|---------------|
Gb|-4-4~4-4--|---2-4------|-------------|---------------|
Db|----------|-4----------|-4-4---4-4---|---------2-4-2-|
Ab|----------|------------|-------------|-----2-5-------|
Eb|----------|------------|-------------|-2-5-----------|



[.Pre-Cborus.] 
in Pre-Chorus he\'s playing nothing but if you need to
bring in 2 guitars and your 2nd guitarist is a bit egocentric
or you are the 2nd guitarist and you wanna learn more then you
could try this:

just move around on the basspart of the A-major scale
Eb|---------------|
Bb|---------------|
Gb|---------------|
Db|----------5-7--|
Ab|------5-7------|
Eb|-5-8-----------|


Or out of scale:
Eb|------------|
Bb|------------|
Gb|------------|
Db|--------7-9-|
Ab|----7-9-----|
Eb|--9---------|


I know that there are a lot more notes available but these ones fit
pretty good into the song

[.Cborus.] 
Play same chords as 1. guitar

Eb|[E]-0-|  Eb|[A]-5-|
Bb|-0-| Bb|-5-|
Gb|-1-| Gb|-6-|
Db|-2-| Db|-7-|
Ab|-2-| Ab|-7-|
Eb|-0-| Eb|-5-|

[.Lead-out.] 
the one after first chorus

Advanced:
just improvise in the B-minor scale again

Beginners:

Eb|-------------------------------------------------|
Bb|--------------3-2----2-3-5-5/7-9-9h10~-9---7---5-|
Gb|-2-2h4-2-2/4------4~-------------9h11~-----------|
Db|-------------------------------------------------|
Ab|-------------------------------------------------|
Eb|-------------------------------------------------|
-------------------------------------------------



I think this will help a lot with timing

[.Verse.] 

[Bm]  In love[Asus2]       [G]
  I[Asus2] get so l[Bm]ost, [Asus2]someti[G]mes[Asus2]
  [Bm]So much [Asus2]hatred[G]
  And[Asus2] this e[Bm]mptiness
[Asus2]  Fills my h[G]eart     [Asus2]       [Bm]
(now there\'s a change, be careful with timing)
  When I want [Asus2]to run [G]away        [Asus2]      [Bm]

  I drive off in [Asus2]my car [G]         [Asus2]      [Bm]

  In the sh[Asus2]elter, [G]everything  [Asus2]
  [Bm]I come back to t[Asus2]he plac[G]e you are
[.pre-cborus.] 
  [A]All my instincts [D]
  They return   [A]
  The grand facade  [D]
  So soon will burn [A]
  Without a noise [D]
  Without my pride [A]
  I reach out from th[D]e inside

Important: The song above is NOT stored on the Chordie server. The original song is hosted at www.guitaretab.com. Chordie works as a search engine and provides on-the-fly formatting. Chordie does not index songs against artists'/composers' will. To remove this song please click here.

Text color:
Chord color:
Chord grids: 
Font size:    
Page size: 

A Asus2 B5 Bm D E G
variations - click chord images

Login - add to songbook

Transpose chords

Tuning

Rating click stars to rate

Layout
Accuracy

SHARE PAGE  




You need to log in to post comments