Guitar Tabs, Chords and Lyrics


Reality Acoustic  Staind

-------------------------------------------------------------------------------



-------------------------------------------------------------------------------

    [Esus2]                                [G] [G] [D] 
eb|---------------------------------|---------------------------------|
Bb|---------------------------------|---------------3-----------------|
Gb|-------0-------0-------------0---|-0-0-0---0-0---2-----------------|
Db|---4-------4-------4-------4---4-|-4-4-2---4-2---0-----------------|
Ab|-2---2-------2-------2---0-------|---------------------------------|
Eb|---------------------------------|-3-3-3---3-3---------------------|



=========== Verse (the light is on... but you're not)

    [Esus2]                                [G] [G] [D] 
eb|-0-------------------------------|---------------------------------|
Bb|-0-------------------------------|-3------(3)----3-----------------|
Gb|-0-------------------------------|-0------(0)----2-----------------|
Db|-4-------------------------------|-0-------0-----0-----------------|
Ab|-2-------------------------------|-2-------------0-----------------|
Eb|-0-------------------------------|-3-------------------------------|



=========== Chorus (sometimes when you're out of)

    [Cadd2]                [Em7]                [G] [G] [D] 
eb|-3-----3-----3---3--3----3---3-3-|-3-------3-----------2----2-3--2-|
Bb|-3-----3-----3---3--3----3---3-3-|-3-------3-------3---3----3-3--3-|
Gb|-0-----0-----0---0--0----0---0-0-|-0-------0-------2---2----2-2--2-|
Db|-2-----2-----2---2--2----2---2-2-|-0-------0-------0---0----0-0--0-|
Ab|-3-----3-----3---2--2----2---2-2-|-2-------2-------0---0----0-0--0-|
Eb|-----------------0--0----0---0-0-|-3-------3-----------------------|



=========== Bridge (the monster you're feeding. your lack of perception)

    [Em7]        [Em7]        [Cadd2]        [Cadd2]        [Em7] [Em7] [D] [D] 
eb|-3-------3-------3-------3-------|-3-------3-----------------------|
Bb|-3-------3-------3-------3-------|-3-------3-------3-------3-------|
Gb|-0-------0-------0-------0-------|-0-------0-------2-------2-------|
Db|-2-------2-------2-------2-------|-2-------2-------0-------0-------|
Ab|-2-------2-------3-------3-------|-2-------2-------0-------0-------|
Eb|-0-------0-----------------------|-0-------0-----------------------|



=========== Final Chord

Esus2 (arpeggiate)

eb|---------------------0-----------|
Bb|-----------------0---------------|
Gb|-------------0-------------------|
Db|---------4-----------------------|
Ab|-----2---------------------------|
Eb|-0-------------------------------|
    |----------Let Ring-------------|


|(#) ghost note (finger but don't strum or pluck)
| / slide up
| \ slide down
| ^ accent note on downstroke
| h hammer-on
| p pull-off
| ~ vibrato
| + harmonic
| x Mute note
===============================================================================

Play order:

[intro] 
[verse] 
the lights are on but you're not home
you've drifted off somewhere alone
somewhere that's safe,
no questions here
a quiet place where you hide from your fears

[cborus] 
sometimes when you're out of rope the way to climb back up's unclear
the walls you build around yourself i guess they also keep you here
are you afraid of what they think? whoever they happen to be
are you hiding from the scars of your own reality?

[verse] 
so you sedate and drown in vain
you've got a pill for every day
a suit and tie to mask the truth
its ugly head is starthing to show through

[cborus] 
sometimes when you're out of rope the way to climb back up's unclear
the walls you build around yourself i guess they also keep you here
are you afraid of what they think? whoever they happen to be
or are you hiding the scars of your own reality?

[bridge] 
the monster you're feeding, your lack of perception
the things you will do to fill your addictions
the light at the end of your tunnel is closing
what is it that you're so afraid of exposing?
you'd give it all up for what's there for the taking
whatever it takes to keep your hands from shaking
the same things you're thinking might make you feel better
the same things that probably got you here

[cborus] 
sometimes when you're out of rope the way to climb back up's unclear
the walls you build around yourself i guess they also keep you here
are you afraid of what they think? whoever "they" happen to be
are you hiding from the scars of your own reality?

[bridge] 
the monster you're feeding, your lack of perception
the things you will do to fill your addictions
the light at the end of your tunnel is closing
what is it that you're so afraid of exposing?
you'd give it all up for what's there for the taking
whatever it takes to keep your hands from shaking
the same things you're thinking might make you feel better
are-the same things that probably keep you here (aaron sings this ending live)
[final cbord]

Important: The song above is NOT stored on the Chordie server. The original song is hosted at www.guitaretab.com. Chordie works as a search engine and provides on-the-fly formatting. Chordie does not index songs against artists'/composers' will. To remove this song please click here.

Text color:
Chord color:
Chord grids: 
Font size:    
Page size: 

Cadd2 D Em7 Esus2 G
variations - click chord images

Login - add to songbook

Transpose chords

Tuning

Rating click stars to rate

Layout
Accuracy

SHARE PAGE  




You need to log in to post comments