Guitar Tabs, Chords and Lyrics


Outside   Staind



Tabs: Outside- Aarron Lewis ft. Fred Durst
Family Values 1999

Intro/Verse
   E                     D  
e|-------------------------------------------|
B|-------------------------------------------|
G|-9-------9----9--9-9---7-------7----7--7-7-|
D|-9-------9----9--9-9---7-------7----7--7-7-|
A|-7-------7----7--7-7---5-------5----5--5-5-|
E|-------------------------------------------|

   G                     A
e|-------------------------------------------|
B|-------------------------------------------|
G|-------------------------------------------|
D|-5-------5----5--5-5---7-------7----7--7-7-|
A|-5-------5----5--5-5---7-------7----7--7-7-|
E|-3-------3----3--3-3---5-------5----5--5-5-|

Chorus--Listen to the song and figure out the timeing and strumming 
patterns.

   E    G    D    Am 
e|-0----3----2-------|
B|-0----0----3----0--|
G|-0----0----2----2--|
D|-2----0----0----2--|
A|-2----2---------0--|
E|-0----3------------|

Lyrics

Verse 1:

When you, bring me to my knees,
All this time, that i can beg you please,
All the times, that i've felt insecure,
And i leave my burdens at the door.

Choruse:

i'm on the outside
i'm looking in
i can see through you
see your true colors
cause inside your ugly
ugly like me
i can see through you 
see to the real you

Verse 2:

All this time, that i've felt like this won't end,
Was for you,
And i taste, but i could never have,
Is from you,
All those times, that i tried,
My intention, full of pride,
And i waste more time than anyone.

Chorus.

Verse 3:

All the times, that i cried
All this wasted, its all inside.
And i feel all this pain,
Stuffed it down, its back again.
And I lie, here in bed,
All alone, i can't mend.
And I feel tomarrow will be okay.



Important: The song above is NOT stored on the Chordie server. The original song is hosted at www.guitaretab.com. Chordie works as a search engine and provides on-the-fly formatting. Chordie does not index songs against artists'/composers' will. To remove this song please click here.

This song is displayed as text-only. Transposing and tuning is only available for chordpro-songs.

Login - add to songbook

Rating click stars to rate

Layout
Accuracy

SHARE PAGE  




You need to log in to post comments

qwert ZuiopĆ¼ (report)

it all has to be 1fr step down!