Guitar Tabs, Chords and Lyrics


Black Rain   Staind



         tabbed by: Alan Moonraker

          vicepresident_49080@yahoo.com

          Black Rain by Staind

           Black Rain is on  Dysfunction and is track 9 then 17:03

          tuning (D,A,D,G,B,E)

          phrase 1

          G|--------0-----------
          D|------4---4--------
          A|----2--------2-------
          D|-0--------------------

          phrase 2

          G|--------0----------
          D|------4---4--------
          A|----2--------2------
          D|-3-------------------

          phrase 3

          B|--------0-------------
          G|-----2---2-----------   repeat twice
          D|----2-------2--------
          A|--0-------------------

          B|-------0----------
          G|-----0---0-------   repeat twice
          D|---2--------2----


Important: The song above is NOT stored on the Chordie server. The original song is hosted at www.guitaretab.com. Chordie works as a search engine and provides on-the-fly formatting. Chordie does not index songs against artists'/composers' will. To remove this song please click here.

This song is displayed as text-only. Transposing and tuning is only available for chordpro-songs.

Login - add to songbook

Rating click stars to rate

Layout
Accuracy

SHARE PAGE  




You need to log in to post comments