Its Been Awhile Acoustic

Staind

acoustic- 00:08-00:49, 01:23-01:54, 03:01-03:33,04:06-04:25-]


[-----------------------------------------------------------]


[-------------3-----------------------3---------------------]


[-------2--------2------------0------------0-----0----------]


[----------2--------2---0---------------------2-------------]


[----0---------------------3------3-------------------------]


[-----------------------------------------------------------]


[-------------------------------------------------]


[-------------3-----------------------3-----------]


[-----------------0--------0----------------0----0]


[--0-----0-------------0-------0----0----------2--]


[--x----------------------------------------------]


[--3----------------------------------------------]


[---0--------0---0-------0---0---0---------0---0------0---0---]


[---1--------1---1-------1---1---1---------1---1------1---1---]


[---2--------2---2-------2---2---0---------0---0------0---0---]


[---2--------2---2-------2---2---2---------2---2------2---2---]


[---0--------0---0-------0---0---3---------3---3------3---3---]


[-------------------------------------------------------------]


[-3--------3---3-------3---3-------2--2--2--2--2--2--0---]


[-3--------3---3-------3---3-------1--1--1--1--1--1--1---]


[-0--------0---0-------0---0-------2--2--2--2--2--2--2---]


[-0--------0---0-------0---0-------0--0--0--0--0--0--0---]


[-2--------2---2-------2---2-----------------------------]


[-3--------3---3-------3---3-----------------------------]


[--3---------3------3----2----2----2--------2-----2----2-----]


[--3---------3------3----1----1----1--------1-----1----1-----]


[--0---------0------0----2----2----2--------2-----2----2-----]


[--0---------0------0----0----0----0--------0-----0----0-----]


[--2---------2------2----------------------------------------]


[--3---------3------3----------------------------------------]


[--0---------0--------0------0---0------0---0--0---0---]


[--1---------1--------1------1---1------1---1--1---1---]


[--2---------2--------2------2---2------2---2--2---2---]


[--2---------2--------2------2---2------2---2--2---2---]


[--0---------0--------0------0---0------0---0--0---0---]


[------------------------------------------------------]


 --0--
  chord
 --1--
  the
 --2--
  first
 --2--
  time
 --0--
  you
 -----
  play it...

that is the perfect fingering for you and enjoy... i can't figure out
how to play the main course because you need to restring it and tune
way out of wack and it's crazy! but if you want that version you can
get it if you get the July issue of "Guitar One"!
e-mail me if you have any questions on my first tab, and you probably
won't because i can play it exactly like it is...
have fun!!!