Guitar Tabs, Chords and Lyrics


Take Me To The Riot  Stars

e|----------2--4---    e|------------------|


B|----2--4---------    B|----2--4----------|


G|-----------------    G|----------3-------|

D|----------------- D|-------------6----|
A|----------------- A|------------------|
E|----------------- E|------------------|
e|-----------------|
B|-------4---------|
G|----4-----3------|
D|-------------6---|
A|-----------------|
E|-----------------|
[B]Saturday nights in neon ligh[F#]ts, Su[G#m]nday in the ce[E]ll
[B]Pills enough to make me fe[F#]el ill, c[G#m]ash enough to make me we[E]ll
[B]Take me, take me to the r[C#m]iot
[G#m]Take me, take me to the r[E]iot
[B]Take me, take me to the r[C#m]iot
[G#m]Take me, take me to the r[E]iot
Take me...


e|-------4-7--6-----9----9-7-------9-7----------------------|
B|-4-5-7---------7------------7-5------7--4--4-5-7--5--4----|
G|----------------------------------------------------------|
D|----------------------------------------------------------|
A|----------------------------------------------------------|
E|----------------------------------------------------------|



G#m E F#, G#m E B

G#m E B riff 1
You sprung me, I'm grateful, I love when you tell me not to speak

G#m E F# riff 2
I owe you but I know you, you'll have me back but it's gonna take a week

G#m E B riff 1
What now kid?, which way love? Will we ever make up and be friends?

G#m E F# riff 2
Good news is my shoes is lined with all my nickels and my tens

G#m E B riff 1
Let's do them! Just feed me... I hate when I have to go to sleep

G#m E F# riff 2
You despise me and I love you, It's not much but it's just enough to keep...


[B]Saturday nights in neon ligh[F#]ts, Su[G#m]nday in the ce[E]ll
[B]Pills enough to make me fe[F#]el ill, c[G#m]ash enough to make me we[E]ll
[B]Take me, take me to the r[C#m]iot
[G#m]Take me, take me to the r[E]iot
[B]Take me, take me to the r[C#m]iot
[G#m]Take me, take me to the r[E]iot
And let me stay...

B, C#m, G#m, F# until end

Important: The song above is NOT stored on the Chordie server. The original song is hosted at www.guitaretab.com. Chordie works as a search engine and provides on-the-fly formatting. Chordie does not index songs against artists'/composers' will. To remove this song please click here.

Text color:
Chord color:
Chord grids: 
Font size:    
Page size: 

B C#m E F# G#m
variations - click chord images

Login - add to songbook

Transpose chords

Tuning

Rating click stars to rate

Layout
Accuracy

SHARE PAGE  




You need to log in to post comments

jharv (report)

G#m E B
Grey skies and light fading, headlamps making patterns on the wall

G#m E F#
Uptown it's dead now but, out here no one seems to care at all

G#m E B riff 1
Slick girls and sick boys and each one lining up to take it home

G#m E F# riff 2
They hold tight their coin and they pray no one has to see the fall

G#m E B
I'm there, yeah I serve them, the one with the empty looking eyes

G#m E F#
Come closer, you'll see me: the face that is used to telling lies