Guitar Tabs, Chords and Lyrics


Faith Hope Love   Starsailor



Tabbed by:Audio84ave
Email: y.kumar@web.de

Tuning: flat



Intro
eb|-----------------------------------------|
Bb|-----------------------------------------|
Gb|--6---6---666/9-9-9-------------11-11-11-|
Db|--6---6---666/9-9-9-9---9---999/11-11-11-|
Ab|--4---4---444/7-7-7-6---6---666/-9--9--9-|
Eb|-----------------------------------------|

eb|-----------------------------------------|
Bb|-----------------------------------------|
Gb|--6---6---666/9-9-9----------------------|
Db|--6---6---666/9-9-9-9---9---999/9-9-9----|
Ab|--4---4---444/7-7-7-6---6---666/9-9-9----|
Eb|--------------------------------7-7-7----|

end on:
e|---------------|
B|---------------|
G|---------------|
D|-7-------------|
A|-7-------------|
E|-5-------------|



Verse: 
(Numbers in brackets indicate the bassline)
				  x3			last time
e|-------------------------------------|--------------------------|
B|-5-----------------------------------|--------------------------|
G|-6-----------------------------------|--------------------------|
D|-7-----------------------------------|-7--------------77777777--|
A|-7--------------(7)------------------|-7--------------77777777--|
E|-5---(5)--------------(7)------------|-5--------------55555555--|



Chorus:
eb|-----------------------------------------|
Bb|-----------------------------------------|
Gb|--6---6---666/9-9-9-------------11-11-11-|	x3
Db|--6---6---666/9-9-9-9---9---999/11-11-11-|
Ab|--4---4---444/7-7-7-6---6---666/-9--9--9-|
Eb|-----------------------------------------|

eb|-----------------------------------------|
Bb|-----------------------------------------|
Gb|--6---6---666/9-9-9----------------------|	x1
Db|--6---6---666/9-9-9-9---9---999/9-9-9----|
Ab|--4---4---444/7-7-7-6---6---666/9-9-9----|
Eb|--------------------------------7-7-7----|

end on:
e|---------------|
B|---------------|
G|---------------|
D|-7-------------|
A|-7-------------|
E|-5-------------|



Middle Part:
e|------------------------------------|-------------------------------------|
B|---------------------5--------------|----------------5--------------------|
G|--9--------8---------6---------6----|--9------8------6---------3----------|
D|--9--------9---------6---------7----|--9------9------6---------4----------|
A|--7--------9---------4---------7----|--7------9------4---------4----------|
E|-----------7-------------------5----|---------7----------------2----------|

end on:
e|---------------|
B|---------------|
G|---------------|
D|-7---77777777--|
A|-7---77777777--|
E|-5---55555555--|




| /  slide up
| \  slide down
| h  hammer-on
| p  pull-off
| ~  vibrato
| +  harmonic
| x  Mute note
=============================================================================





Important: The song above is NOT stored on the Chordie server. The original song is hosted at www.guitaretab.com. Chordie works as a search engine and provides on-the-fly formatting. Chordie does not index songs against artists/composers will. To remove this song please click here.

This song is displayed as text-only. Transposing and tuning is only available for chordpro-songs.

Login - add to songbook

Rating click stars to rate

Layout
Accuracy

SHARE PAGE  




You need to log in to post comments