Chordie logo

A Goodnights Sleep   Starting Line



standard tuning

intro:
guitar2    guitar1
(rhythm)   (lead)       g2*         g1**
e------|--------------|-----------|----------------------------------|
B------|--------------|-----------|-7-7-8-7---7-7-8-7----------------|
G--7---|-7-7-7-7-7----|-7---4-----|-x-x-x-x-7-x-x-x-x-9-7-7-9-11-7---|
D--7---|--7-7---7-7---|-7-7-4-5---|-4-4-5-4-x-4-4-5-4-x-x-x-x-x--x---|
A--5---|--------------|-5-7-2-5---|---------5---------7-5-5-7-9--5---|
E------|--------------|---5---3---|----------------------------------|

g1**
e------------------------------------------------------------|
B-7-7-8-7----------------------------------------------------|
G-x-x-x-x-9-9-9-7-7-7-9-9-9-7-7-7-7-7-7-9-9-9-11-11-11-7-----|
D-4-4-5-4-x-x-x-x-x-x-x-x-x-x-x-x-x-x-x-x-x-x-x--x--x--x-7---|
A---------7-7-7-5-5-5-7-7-7-5-5-5-5-5-5-7-7-7-9--9--9--5-x---|
E--------------------------------------------------------5---|

verse:
g2       g1       g2
e------|--------------|---------|
B------|--------------|---------|
G--7---|--------7-7---|-----7---|
D--7---|-----7--------|--7--7---|
A--5---|-5-5--5-------|--7--5---|
E------|--------------|--5------|

prechorus:
g2=*
g1
e-------------------------------|
B-------------------------------|
G---7------6------4-------------|
D--7-7--7-7-7-7--4-4-4---5------|
A-5---5--4---4--2---2---5---7---|
E----------------------3----5---|

chorus:
g1=**
g2=*

bridge:
g1=**
g2=*




Important: The song above is NOT stored on the Chordie server. The original song is hosted at www.guitaretab.com. Chordie works as a search engine and provides on-the-fly formatting. Chordie does not index songs against artists/composers will. To remove this song please click here.

This song is displayed as text-only. Transposing and tuning is only available for chordpro-songs.

Login - add to songbook

Rating click stars to rate

Layout
Accuracy

SHARE PAGE  



You need to log in to post comments