Guitar Tabs, Chords and Lyrics


Forever In A Day   Starting Line



Starting Line - Forever in a Day 
By:Andrew Mcshan (Guitarguyx182@aol.com)

Intro
e|-10-----------------------------------------------------------------------|
B|---10--8-7--7-------------------------------------------------------------|
G|-----------7--------------------------------------------------------------|
D|--------------------------------------------------------------------------|
A|--------------------------------------------------------------------------|
E|--------------------------------------------------------------------------|

e|--------------------------------------------------------------------------|
B|--------------------------------------------------------------------------|
G|--------------7-9-7-12-11-14-12-11-12--11-7-9-----------------------------|
D|-12-7-10-5-x4-x-x-x-x--x--x--x--x--x---x--x-x-----------------------------|
A|-12-7-10-5----5-7-5-10-9--12-10-9--10--9--5-7-----------------------------|
E|-10-5-8--3----------------------------------------------------------------|
Verse
e|--------------------------------------------------------------------------|
B|--------------------------------------------------------------------------|
G|----9/7-------------------------------------------------------------------|
D|-12-9/7-7-10-5------------------------------------------------------------|
A|-12-7/5-7-10-5------------------------------------------------------------|
E|-10-----5-8--3------------------------------------------------------------|
Chorus
e|--------------------------------------------------------------------------|
B|--------------------------------------------------------------------------|
G|--------7-7-----------10--7-8-7-------------------------------------------|
D|-5-12-7-7-7-5-12-7--------------------------------------------------------|
A|-5-12-7-5-5-5-12-7--------------------------------------------------------|
E|-3-10-5-----3-10-5--------------------------------------------------------|
Bridge
e|--------------------------------------------------------------------------|
B|--------------------------------------------------------------------------|
G|--------------------------------------------------------------------------|
D|-2--5--9-5--2-5--9-5------------------------------------------------------|
A|-2--5--9-5--2-5--9-5------------------------------------------------------|


Important: The song above is NOT stored on the Chordie server. The original song is hosted at www.guitaretab.com. Chordie works as a search engine and provides on-the-fly formatting. Chordie does not index songs against artists'/composers' will. To remove this song please click here.

This song is displayed as text-only. Transposing and tuning is only available for chordpro-songs.

Login - add to songbook

Rating click stars to rate

Layout
Accuracy

SHARE PAGE  




You need to log in to post comments