Guitar Tabs, Chords and Lyrics


Make Yourself At Home  Starting Line

     [AM7]           [F#9]          [B9]         [D]                         
e|-----0-4-|-----0-4-|-------0-|---2-|
B|---------|---------|---------|---3-|
G|---2-----|---2-----|-----4---|---2-|
D|---------|-4-------|---4-----|---0-|
A|-0-------|---------|-2-------|-----|
E|---------|---------|---------|-----|


A - x02220
[F#m]Bm -[-]   [244222]x24432
E/G# - 476xxx


Verse 1:
Make it a no[AM7]te to take[F#9] your pills[B9] she said[D]
I'll leave[AM7] them on the ta[F#9]ble in the same[B9] brown bottle[D]
you know[AM7] she said[F#9] its good[B9] to have you home[D]
the second[AM7] that I smelt[F#9] that scent of my[B9] own house i said [D]it


Chorus:
[D]  Send just one postcard home and
call as often as you can to tell
us how it goes let us know


Interlude:
     [AM7]           [F#9]          [B9]         [D]                         
e|-----0-4-|-----0-4-|-------0-|---2-|
B|---------|---------|---------|---3-|
G|---2-----|---2-----|-----4---|---2-|
D|---------|-4-------|---4-----|---0-| (x2)
A|-0-------|---------|-2-------|-----|
E|---------|---------|---------|-----|



Verse 2:
Make it a no[AM7]te to make[F#9] a point[B9] he said[D]
thats good [AM7]advice ill take [F#9]it
now[B9] ill start to use [D]it you know


Chorus:
[D]  Sentences, long messages from me to you
to let you know im ok
I'll let you know[A] im ou[D]t making you [A]proud
so [F#m]dont wait up ill [D]be home soon
[A]  im out[D] of town for now[A] you're
what [F#m]makes it home that [D]I'll come back to


Interlude:
     [AM7]           [F#9]          [B9]         [D]                         
e|-----0-4-|-----0-4-|-------0-|---2-|
B|---------|---------|---------|---3-|
G|---2-----|---2-----|-----4---|---2-|
D|---------|-4-------|---4-----|---0-| (x4)
A|-0-------|---------|-2-------|-----|
E|---------|---------|---------|-----|


Verse 3:
Make it a no[AM7]te to take[F#9] your time[B9]
they begged[D] take ba[AM7]by steps to eve[F#9]rywhere
and come [B9]home in one [D9]piece to us[AM7]
you know[F#9] it's so [B9]good to be home[D9]
and know[AM7] that when I hit[F#9] the road
I'm think[B9] of you both [D]I miss you


Chorus:
[D]  Send just one postcard home and
call as often as you can to tell us
how it goes let us know[A] im out[D] making
you [A]proud so [F#m]dont wait up I'll [D]be home soon
[A]  im out[D] of town for [A]now you're
what [F#m]makes it home that [D]I'll come back to


Interlude: D----Bm--A--E/G# (x2)



[D]Thank you for eve[Bm]rything[D]!!!!
Chorus:
[A]  im out[D] making
you [A]proud so [F#m]dont wait up I'll [D]be home soon
[A]  im out[D] of town for [A]now you're
what [F#m]makes it home that [D]I'll come back to

Important: The song above is NOT stored on the Chordie server. The original song is hosted at www.guitaretab.com. Chordie works as a search engine and provides on-the-fly formatting. Chordie does not index songs against artists'/composers' will. To remove this song please click here.

Text color:
Chord color:
Chord grids: 
Font size:    
Page size: 

A Am7 B9 Bm D D9 F#9 F#m
variations - click chord images

Login - add to songbook

Transpose chords

Tuning

Rating click stars to rate

Layout
Accuracy

SHARE PAGE  




You need to log in to post comments