Guitar Tabs, Chords and Lyrics


The Night Life  Starting Line

E4 -    0-0-7-9-10-0



e|---------0-----7------7------7---|

B|-----5-----5-----5------5------5-|
G|-6-6---6-----6-----6------6------|
D|---------------------------------|
A|---------------------------------|
E|---------------------------------|
e|---------0---------0-------0---0-|
B|-----0-----0---0-----0---0---0---|
G|-2-2---2-----2---2-----2---------|
D|---------------------------------|
A|---------------------------------|
E|---------------------------------|
e|-------0-----7------7-------------|
B|---5-----5-----5--------5h7p5---5-|
G|-6---6-----6-----6----6-------6---|
D|----------------------------------|
A|----------------------------------|
E|----------------------------------|
e|---------0---------0-------0---0-|
B|-----0-----0---0-----0---0---0---|
G|-2-2---2-----2---2-----2---------|
D|---------------------------------|
A|---------------------------------|
E|---------------------------------|
[A]  Last call everybody step up for a[F#/E]nother
They’re [A]ringing the bell as you yell to the crowd that’s be[F#/E]hind you
Did she [Bm]sweep you off your feet
[C#m]You de[D9]cided not to leave without her
[A]  Without her tonight[E/F#--A--F#]
[A]  Break down all the chairs, all the tables and my [F#/E]minds on you
[A]  Give up and Get into the van and [F#/E]go away again
Because the [Bm]things you leave for us [C#m]now are [D9]getting out of hand
        A                 D--E3--E4--A5---E3--E4

Im sorry Im sorry about it


Chorus: Not sure of the chords
[A/F#]  At [A9]least you [Bm9]lived to [A9]talk about[A/F#-A9] it
At [Bm9]least you [A9]got your health
[A/F#]  At [A9]least it [Bm9]made you [A9]feel in [A/F#]love oh [A9]well
D9(hold)
I wish you were right now


(Repeat Intro)


Verse 2: Same Chords as Verse 1:
Down now when I wake on your shoulders calm down on you
You're just been forever this just nothing gets to be enough
Did you say that I'm trying hard to forget somethingI think enough of
[A]  Im sorry about it[D--E3--E4]
[A]  To the pieces that it [D--E3--E4]hurts


(Repeat Chorus)


Bridge:
[D9]Now Your all caught up After sleeping for days
[A9]  Makes up for nights you spent awake
[D9]  It will take awhile to see that smile
[A9]That slates torment since she’s gone
(Repeat)


(Repeat Chorus)

Important: The song above is NOT stored on the Chordie server. The original song is hosted at www.guitaretab.com. Chordie works as a search engine and provides on-the-fly formatting. Chordie does not index songs against artists'/composers' will. To remove this song please click here.

Text color:
Chord color:
Chord grids: 
Font size:    
Page size: 

A A/F# A9 Bm Bm9 C#m D9 F#/E
variations - click chord images

Login - add to songbook

Transpose chords

Tuning

Rating click stars to rate

Layout
Accuracy

SHARE PAGE  




You need to log in to post comments