Guitar Tabs, Chords and Lyrics


Playing Favorites  Starting Line

Guitar 1: A9--F#m7--D9----F#m9-E-D9 (x2)



e|------0-----0-----------------0--------------------------------|

B|-0--2---0h2----0----------------------------------------0------|
G|------------------1h2-----1h2---2-------------------1h2---2----|
D|-----------------------------------2--4--6--2-----4----------0-|
A|--------------------------------------0--0--0-0----------------|
D|---------------------------------------------------------------|
e|------0-----0--------------------------------------------------|
B|-0--2---0h2----0--------------0-------------------------0------|
G|------------------1h2-------2---2-------------------1h2---2----|
D|-----------------------------------2--4--6--2-----4----------0-|
A|--------------------------------------0--0--0-0----------------|
D|---------------------------------------------------------------|
i [A9]guess the most that i can do
is [F#m7]make a call and tell you the truth
[D9]sing the words in melody
F#m7 D9(hold)
and hope that you'll believe me
[A9]here's another song for you
[F#m7]so this one this one makes two
[D9]still don't know where to begin
[F#m7]i'll just leave it at [D9]this


Interlude: A/F#-A/E-A/D (x2)


Refrain:
[A/F#]  i'm sure you always feel my [A/E]eyes on [A/D]you
but i [A/F#]hope that you will [A/E]never feel un[A/D]wanted


Chorus:
[A9]wait for me to move out [E/G#]west
it's ok if you [F#m7]don't

i hope you know
you're my [E/G#]favorite [E]thing
a[D9]bout the west coast
[A9]  i wish i s[E/G#]tayed
i hope you [F#m7]wait

so here i am
counting [E/G#]down the [E]days
till [D9]california comes


(Repeat Intro)


Verse 2:
[A9]this is the least that i can do
you [F#m7]know i'm bad at calling you
the [D9]best way i can accept
the [F#m7]lonely words i [D9]miss you
i'll [A9]say it but i'm sure you knew
you're [F#m7]what i look most forward to
[D9]coming back to where i've been
[F#m7]i'll just leave it at [D]this

(Repeat Refrain)
if you feel un[D]wanted

(Repeat Chorus)

Interlude: F#m7-E-A9-D9 (x4)

(repeat Chorus)

[F#m7-E-D9]                                     
F#m7-E-D9 A(let ring)
Till california comes

Important: The song above is NOT stored on the Chordie server. The original song is hosted at www.guitaretab.com. Chordie works as a search engine and provides on-the-fly formatting. Chordie does not index songs against artists'/composers' will. To remove this song please click here.

Text color:
Chord color:
Chord grids: 
Font size:    
Page size: 

A/D A/E A/F# A9 D D9 E E/G# F#m7
variations - click chord images

Login - add to songbook

Transpose chords

Tuning

Rating click stars to rate

Layout
Accuracy

SHARE PAGE  




You need to log in to post comments