Guitar Tabs, Chords and Lyrics


Bedroom Talk  Starting Line

   [Bb5]       [G5]       [Eb5]       [F5]      [Eb5]      [Bb5]                                                
e|-------------------------------------|
B|-------------------------------------|
G|-------------------------------------|
D|-8(x16)-5(x16)-1(x16)-3(x8)-1(x7)-8--|
A|-8(x16)-5(x16)-1(x16)-3(x8)-1(x7)-8--|
D|-8(x16)-5(x16)-1(x16)-3(x8)-1(x7)-8--|


Guitar 2: (x2)
e|---------------------------------|
B|-1-1-1---1-1-1---1-1-3-3-1-------|
G|-------3-------3-----------3-3---|
D|-------------------------------3-|
A|---------------------------------|
D|---------------------------------|


then
e|-1---3-1---3-1----3-1-----------------------|
B|---3--------------------3-3~--1-1-1-1---1---|
G|---------3------3-----3---------------3---3-|
D|--------------------------------------------|
A|--------------------------------------------|
D|--------------------------------------------|


Verse 1:

Guitar 1: (x4)
e|------------------------------------------------------------------|
B|------------------------------------------------------------------|
G|-----3-------3-------3-------3-------3-------3-------3-------3----|
D|------------------------------------------------------------------|
A|-1-1---1-1-1---1-3-3---3-3-3---3----------------------------------|
D|---------------------------------1-1---1-1-1---1-1-1---1-1-1---1--|


Guitar 2: (x2) will enter at time 0:32 and this is palm muted
e|--------------------|
B|--------------------|
G|-3(x8)-5(x8)--------|

D|-3(x8)-5(x8)-1(x8)--|
A|-1(x8)-3(x8)-1(x8)--|
D|-------------1(x8)--|


Refrain: I got big big plans...

Guitar 1:
Bb/D Eb5 F5 | Bb/D Eb5 G5 | Bb/D Eb5 F5 | G5 F5 Eb5
e|-------------|-------------|-------------|---------------------|
B|-------------|-------------|-------------|---------------------|
G|-------------|-------------|-------------|---------------------|
D|--1----1---3-|--1----1---5-|--1----1---3-|-5(x4)--3(x4)--1(x5)-|
A|--0----1---3-|--0----1---5-|--0----1---3-|-5(x4)--3(x4)--1(x5)-|
D|--1----1---3-|--1----1---5-|--1----1---3-|-5(x4)--3(x4)--1(x5)-|


Guitar 2: This bar is palm muted
e|-------------|-------------|-------------|-----------------------|
B|-------------|-------------|-------------|-----------------------|
G|-7~--8~--5~--|-7~--8~--3~--|-7~--8~--5~--|-----------------------|
D|-8~--x~--x~--|-8~--x~--x~--|-8~--x~--x~--|-5(x4)--3(x4)----------|
A|-5~--6~--3~--|-5~--6~--1~--|-5~--6~--3~--|-5(x4)--3(x4)----------|
D|-------------|-------------|-------------|-5(x4)--3(x4)----------|


then
e|------------|
B|-3-1-1------|
G|-------1-1--|
D|------------|
A|------------|
D|------------|


Verse 2:

Guitar 1: Idle

Guitar 2: (x4)
e|--------------------|
B|--------------------|
G|-3(x8)-5(x8)--------|

D|-3(x8)-5(x8)-1(x8)--|
A|-1(x8)-3(x8)-1(x8)--|
D|-------------1(x8)--|


Guitar 1: will enter at time 1:27

Very fast at this bar only
e|-------------|
B|-------------|
G|-------------|
D|-----8-----8-|
A|-----8-----8-|
D|-x-x-8-x-x-8-|


then do this at time 1:35 but strum the strings at 1/4 beat only
e|--------|
B|--------|

G|-3(x16)-
D|-3(x16)-
A|-1(x16)-
D|--------


Bridge: And the next part is the hardest..

Both guitars:
F5 | G5 | F5 | G5 A5 Bb5 C5 | C5 | G5 F5
e|--------|--------|--------|--------------|---------|-------------|
B|--------|--------|--------|--------------|---------|-------------|
G|--------|--------|--------|--------------|--5(x16)-|-------------|
D|-3(x16)-|-5(x16)-|-3(x16)-|-5--7--8--10--|--5(x16)-|-5(x8)-3(x8)-|
A|-3(x16)-|-5(x16)-|-3(x16)-|-5--7--8--10--|--3(x16)-|-5(x8)-3(x8)-|
D|-3(x16)-|-5(x16)-|-3(x16)-|-5--7--8--10--|---------|-5(x8)-3(x8)-|


then
| C5 | F5 G5 Eb5
e||--------|----------|
B||--------|----------|
G||-5(x16)-|----------|
D||-5(x16)-|-3--5--1--|
A||-3(x16)-|-3--5--1--|
D||--------|-3--5--1--|



Lyrics: For those people who doesn't want to use the Drop D tuning, here are the

chords for you
Bb - x13331
[Gm]Eb    [-]-  [355333]x68886
[F]Bb/D  [-]-  [133211]x5333x or x58xxx
Cm - x35543
A - x02220

Intro: Bb--Gm--Eb--F--Eb--Bb


Verse 1:
[Bb]  I got the [Cm]talk when I was [Eb]younger and understood
[Bb]  As I re[Cm]call they hadn't [Eb]mentioned this at all
[Bb]  My heart was [Cm]racing like a s[Eb]printer that tripped and fell
[Bb] In love with [Cm]a girl just for [Eb]tonight and that's all


Refrain:
I've got [Bb/D]big, [Eb]big [F]plans
And they've [Bb/D]got  [Eb]to [Gm]mean something more
[Bb/D]than [Eb]just [F]once I just [Gm]don't know [F]what I [Eb]want


Chorus:
I'm gonna [Bb]tear your ass up like we just got married
And you're [Gm]all mine now
To[Eb]night is the night we've been waiting for all [F]our lives
Or [Eb]maybe for just [Bb]mine


Verse 2:
[Bb]  I got the [Cm]call when I was [Eb]older Yeah and I understood
[Bb]  If it [Cm]happens then it [Eb]happens and that's all
[Bb]  My arms the [Cm]hose and you're the [Eb]fire out of control
[Bb] and I've got to [Cm]put you out before there's [Eb]nothing left at all


(Repeat Refrain and Chorus)

Chorus 2:
So [Bb]get your ass up cause you're in no hurry
like [Gm]I am now
Eb f
I'm getting older and older all of this time
or [Eb]maybe for just to[F]night


Bridge:
[F] And the next part is the [Gm]hardest
To ad[F]mit and explain but I've got to get it [Gm]rig[A]ht[Bb]   [Cm]
She said "I'll [Cm]chew you up and spit you out like [Gm]all [F]them
I'm gonna [Cm]put you right back in my mouth
You know that [F]I [Gm]will [Eb]always love you"


Chorus 3:
I said I [F]tore your ass up like we just got married
And you're [Gm]all mine now
It's [Eb]tonight is the night we've been waiting for all [F]our lives
Or [Eb]maybe its just
You've gotta [Bb]get your ass up cause you're in no hurry
Like [Gm]I am now
[Eb]Im getting older and older all of the [F]time
Baby [Eb]one more time


Chorus 4:
I'm gonna [Bb]tear your ass up like we just got married
And you're [Gm]all mine now
[Eb]Im getting older and older all of the [F]time
Or [Eb]maybe it's just [Bb]mine
Over to[Gm]night
Eb F Eb---Bb(Hold)
Yeah yeah Oh yeaaaahh

Important: The song above is NOT stored on the Chordie server. The original song is hosted at www.guitaretab.com. Chordie works as a search engine and provides on-the-fly formatting. Chordie does not index songs against artists'/composers' will. To remove this song please click here.

Text color:
Chord color:
Chord grids: 
Font size:    
Page size: 

A Bb Bb/D Bb5 Cm Eb Eb5 F F5 G5 Gm
variations - click chord images

Login - add to songbook

Transpose chords

Tuning

Rating click stars to rate

Layout
Accuracy

SHARE PAGE  




You need to log in to post comments