Guitar Tabs, Chords and Lyrics


Inspired By The  Starting Line

[F#m]A - [-]       [244222]x02220
B - x24442
C - x35533 or x32010
[G#m]    [-]       [466444]                          
Intro:

Guitar 1: This is the cool part
e|---------------------|---------------------|
B|---------------------|---------------------|
G|---------------------|---------------------|
D|-----2-----------4-4-|-----2-----------4-4-|
A|-4-4---4-4-0h2p0-4-4-|-4-4---4-4-0h2p0-4-4-|
E|-----------------2-2-|-----------------2-2-|

then
e|---------------------|---------------------|
B|---------------------|---------------------|
G|---------------------|-----------------4-5-|
D|-----2-----------4-2-|-----2-----------4-5-|
A|-0-0---0-0-0h2p0-----|-0-0---0-0-0h2p0-2-3-|
E|---------------------|---------------------|
Guitar 1: C#m--C#m--A--A--B-C (x2)


Guitar 2: Enter at time 0:10 (x2)
e|-------------------------14p12-|-------------------------14p12-|
B|-------12-------12-------------|-------12-------12-------------|
G|-13h14----13h14----13h14-------|-13h14----13h14----13h14-------|
D|-------------------------------|-------------------------------|
A|-------------------------------|-------------------------------|
E|-------------------------------|-------------------------------|

then
e|-------------------------------|-------------------------------|
B|-------12-------12-------14p12-|-------12-------12-------12-13-|
G|-13h14----13h14----13h14-------|-13h14----13h14----13h14-------|
D|-------------------------------|-------------------------------|
A|-------------------------------|-------------------------------|
E|-------------------------------|-------------------------------|


Verse 1:
C#m(hold) C#m A B C
Closed window pane I stare out all day
This [C#m]room and the walls We [A]wait for the [B]call[C]
And [C#m]slow like decay This [A]progress we've [B]made
[C]Could you...


Chorus 1:
Get to the [C#m]point, get it across
To the [A]boys at the top of the [B]ladder I'm cl[C]imbing up
[C#m]I,I have my [A]doubts[B-C]


Verse 2:
[C#m]This is a call from my [A]cage
through the [B]bars[C]
Ins[C#m]pired by the dollar sign that's [A]dangling out[B]side
[C]Someone...


Chorus 2:
Get to the [C#m]point, get it across
To the [A]boys at the top of the [B]ladder I'm cl[C]imbing up
[C#m]I,I have my [A]doubts my doubts[B] my doubts[C] my doubts!


Guitar 2: (x16) means strum the strings 16 times instead of writing them redundantly
e|----------------------------------------------------|
B|----------------------------------------------------|
G|----------------------------------------------------|
D|---2--------2--------2-----------------------4(x16)-| (x3)
A|-4----4p0h4----4p0h4----4p0h4--4-4-4-4-4-2-0-4(x16)-|
E|---------------------------------------------2(x16)-|



Bridge:
Go on and get it [F#m]right
Get it [C#m]right okay
Just stay, just stay the same way[F#m]
Do it like you did it [C#m]before okay
remain, remain the same shape[F#m]
If I did it a[G#m]gain you're stabbing it [A]now
C(Hold)
Lord help me now, Lord help me now

(Repeat Chorus 1 then Chorus 2)

Important: The song above is NOT stored on the Chordie server. The original song is hosted at www.guitaretab.com. Chordie works as a search engine and provides on-the-fly formatting. Chordie does not index songs against artists'/composers' will. To remove this song please click here.

Text color:
Chord color:
Chord grids: 
Font size:    
Page size: 

A B C C#m F#m G#m
variations - click chord images

Login - add to songbook

Transpose chords

Tuning

Rating click stars to rate

Layout
Accuracy

SHARE PAGE  




You need to log in to post comments