Guitar Tabs, Chords and Lyrics


Song For Her   Starting Line



This song is in a different tuning but if you're too lazy, play it in drop D.

Intro
e|-----------------------------------------------|
B|----------------------------------------7------|
G|--7----7-----7-----7----6----7----7-----7------|
D|--x----x-----x-----x----x----x----x-----x------|
A|--5----7-----5-----5----4----x----x-----5------|
D|--0----0-----5-----0----0----9----7-----0------|

Verse
e|----------------------------------|
B|----------------------------------|
G|--7---7----7----7-----7-----------|
D|--4---x----x----x-----x-----x2----|
A|--5---5----7----x-----5-----------|
E|--0---5----0----9-----5-----------|

e|---------------------------------------------------------------|
B|---------------------------------------------------------------|
G|--7----7----7-----7------7------7----7----7-----7----7-----7---|
D|--4----x----x-----x------x------x----x----x-----x----x-----x---|
A|--5----5----7-----x------5------x----x----5-----x----x-----5---|
D|-------5----0-----9------5------7----9----5-----7----9-----5---|

e|------------------------------------------------------------|
B|--------------------------------------------------------7---|
G|--------------------------------------------------------7---|
D|-------0------0----0------0-----------------------------x---|
A|---------------------------------9-----9-----7-------7--7---|
D|--4-4----4-4---5-5---5-5-----9-9---9-9---7-7----7-7-----7---|

e|---------------------------------------|
B|---------------------------------------|
G|---------------------------------------|
D|-------0------0----0------0--7-7-7-7---|
A|-----------------------------7-7-7-7---|
D|--4-4----4-4---5-5---5-5-----7-7-7-7---|

Chorus
e|----------------------|
B|----------------------|
G|--7---7----7-----7----|
D|--x---x----x-----x----|
A|--5---x----x-----5----|
E|------7----9-----5----|

Verse 2
e|----------------------|
B|----------------------|
G|--7----7----7---------|
D|--x----x----x----x4---|
A|--x----x----5---------|
E|--9----7--------------|

Bridge
e|---------------------------------------------------------|
B|---------------------------------------------------------|
G|---------------------------------7---7---7---7---7---7---|
D|-4--5---9--7-----4--5--7----x2---x---x---x---x---x---x---|
A|-4--5---9--7-----4--5--7---------x---x---5---x---x---5---|


Important: The song above is NOT stored on the Chordie server. The original song is hosted at www.guitaretab.com. Chordie works as a search engine and provides on-the-fly formatting. Chordie does not index songs against artists'/composers' will. To remove this song please click here.

This song is displayed as text-only. Transposing and tuning is only available for chordpro-songs.

Login - add to songbook

Rating click stars to rate

Layout
Accuracy

SHARE PAGE  




You need to log in to post comments