"yes"; ?> Something Left To Give by Starting Line - guitar chords, guitar tabs and lyrics - chordie

Something Left To Give

Starting Line

eb---0---------------0--------------|--------9---------------------------------|

Bb------0---------------0-----------|-----10-----------------------------------|
Gb---------6---------------6--------|---9--------------------------------------|
Db------------7---------------7-----|-0----------------------------------------|
Ab--------------0--0-------------0--|------------------------------------------|
Eb-0--------------------------------|------------------------------------------|

 Aadd9
 I've got stars in my great big sky
Aadd9 DMajsus2(hold)
I shall gaze upon without leaving small ones behind
 Aadd9
Because they're harder to find 
 Aadd9
 Some were satellites, others planes
Aadd9 DMajsus2(hold)
Some were twinkling while others were fading away
 Aadd9
But they're all one of a kind   

 E
 Oh it's not that interesting
 EF#m
 But I'd like to keep it a secret   
 F#mDsus2Aadd9
 So I'll have something left to give 
 DMajsus2Aadd9
 It's not that difficult when you've got a luck of this kind 
 DMajsus2Aadd9
 We've got to take advantage, we've got such limited time 
 DMajsus2
 Oh I wonder, oh I wonder
 DMajsus2Aadd9
 How long to take me to die 
 E
Oh it's not that interesting
 EF#m
But I'd like to keep it a secret  
 Dsus2
So I'll have something left to give

-Go back to beginning riff in A

 Aadd9
 And I'll hear my children and grandchildren sing
 Dsus2
 Blah la la la da da da
 Dsus2Aadd9
 Blah la la la da da da 
 Dsus2
 Blah la la la da da da
 Dsus2Aadd9
 Blah la la la da da da 

Lead Part:
eb--------------------------------------------------------|------9-------------|
Bb--------------------------------------------------------|-----10-------------|
Gb-13-13-13-13-13-/-14-14-14-\-11-11-11-11--11-\-9-11-\-9-|11---11-------------|
Db--x--x--x--x--x----x--x--x----x--x--x--x---x---x--x---x-|-x----0-------------|
Ab-11-11-11-11-11-/-12-12-12-\--9--9--9--9---9-\-7--9-\-7-|-9----9-------------|
Eb--------------------------------------------------------|--------------------|

Played through 3 times DMaj7

 EF#m
 It's not that interesting but I'd like to keep it a secret 
 F#m
 So I'll have something left to give
 E
 In my remaining years
 EF#m
 When I am old and plain lazy 
 F#m
 I'll have a little something left to give
 E
 To all those who loved me so much
 EDMaj7
 I'd like to return the favor 
And have something left to give

 Aadd9
 And I'll hear my children and grandchildren sing
 Dsus2
 Blah la la la da da da
 Dsus2A
 Blah la la la da da da  

It's not that difficult when you've got a luck of this kind
 Dsus2
 Blah la la la da da da
 Dsus2A
 Blah la la la da da da  

--Lead part comes in over this last part a few times. It gets real
Full from this point forward. Play the tonality if it's just one guitarist

To all those who loved me so much, I'd like to return the favor

Blah la la la da da da

Blah la la la da da da

I wonder oh i wonder, how long to take me to die

Blah la la la da da da

Blah la la la da da da

It's not that interesting but I'd like to keep it a secret

And have something left to give

Pick through the Aadd9 Chord. It would also help to have about 3 guitarists.

Chords:
-0----|-0----|-9------|-0----|-0----|-2----|----------------------------------|
-2----|-0----|-10-----|-3----|-0----|-2----|----------------------------------|
-2----|-6----|-9------|-2----|-1----|-2----|----------------------------------|
-2----|-7----|-0------|-0----|-2----|-4----|----------------------------------|
-0----|-0----|--------|------|-2----|-4----|----------------------------------|
------|------|--------|------|-0----|-2----|----------------------------------|

 AMajAadd9Dmajsus2Dsus2EF#m
| / slide up
| \ slide down
| h hammer-on
| p pull-off
| ~ vibrato
| + harmonic
| x Mute note
===============================================================================


A Amaj Aadd9 Dmaj7 Dsus2 E F#m
variations - click chord images
Transpose chords:
Tuning:
Cool service:
View: Size:
A  A  A
Rating:
Layout:
  • Currently 5/5 Stars.
  • 1
  • 2
  • 3
  • 4
  • 5
 
Accuracy:
  • Currently 0/5 Stars.
  • 1
  • 2
  • 3
  • 4
  • 5
 
click stars to rate
Chordie recommends:
Learn how to play guitar at JamPlay.com
Songbook:
Login to add this song to your songbook
Support the artist
Preview/buy this song
MSN Music
Why this non-profit ad?

 
login to add comments/video/corrections