Guitar Tabs, Chords and Lyrics


Island Acoustic   Starting Line



http://videobeta2.adpqa.aol.com/video/music-the-starting-line-island-in-studio/1970904

I just watched this video and kind of got the just of it, prolly wrong. haha. 
my first tab so rate!
U-R-U-B-I-O

Kenny: Guitar 1

Intro

e|-----0-----------|
B|-----0-----------|
G|-----6-----------| 
D|-----0-----------|
A|-----0-----------|
D|-----------------|


Verse

  Lets sail away...Find our own country
e|0---------------0--------------------------|
B|0---------------0--------------------------|
G|6---------------6--------------------------|
D|0---------------0--------------------------|
A|0---------------0--------------------------|
D|-------------------------------------------|

  We'll build a house and beds out of palm trees
e|0----------------------0-------------------|
B|0----------------------0-------------------|
G|6----------------------6-------------------|
D|0----------------------0-------------------|
A|0----------------------0-------------------|
D|-------------------------------------------|

  Lets get away....Lets push our lives aside
e|0----------------0-----------------------0---------0-|
B|0----------------0-----------------------0---------0-|
G|6----------------7-----------------------6---------9-|
D|0----------------0-----------------------0---------0-|
A|0----------------0-----------------------0---------0-|
D|-----------------------------------------------------|

PreChorus

  When it seems like things are only getting better
e|0------------------------------------------0----|
B|0------------------------------------------0----|
G|7------------------------------------------6----|
D|5------------------------------------------0----|
A|5------------------------------------------0----|
D|5-----------------------------------------------|

  When it seems like we can never take a break
e|0------------------------------------------0---x|
B|0------------------------------------------0---x|
G|7------------------------------------------6---x|
D|5------------------------------------------0---x|
A|5------------------------------------------0---x|
D|5----------------------------------------------x|


Chorus
  Just keep a hold of me, don't let go
e|0-----------------------0---------0--------|
B|0-----------------------0---------0--------|
G|7-----------------------6---------7--------|
D|7-----------------------0---------0--------|
A|7-----------------------0---------0--------|
D|0------------------------------------------| 
  Of you float away, if you float away
e|0-------------------------------0----------|
B|0-------------------------------0----------|
G|7-------------------------------6----------|
D|7-------------------------------0----------|
A|7-------------------------------0----------|
D|0------------------------------------------|

Bridge
(Strum slowly and build it up)
e|0------------------------------------------|
B|0------------------------------------------|
G|6------------------------------------------|
D|0------------------------------------------|
A|0------------------------------------------|
D|-------------------------------------------|
   
   And if you like, and if you like some other time...
e|0--------------------------------------------0---|
B|0--------------------------------------------0---|
G|7--------------------------------------------6---|
D|5--------------------------------------------0---|
A|5--------------------------------------------0---|
D|5------------------------------------------------|
  
  If we survive, if we survive get out alive...
e|0--------------------------------------------0--x|
B|0--------------------------------------------0--x|
G|7--------------------------------------------6--x|
D|5--------------------------------------------0--x|
A|5--------------------------------------------0--x|
D|5-----------------------------------------------x|



Repeat




Important: The song above is NOT stored on the Chordie server. The original song is hosted at www.guitaretab.com. Chordie works as a search engine and provides on-the-fly formatting. Chordie does not index songs against artists/composers will. To remove this song please click here.

This song is displayed as text-only. Transposing and tuning is only available for chordpro-songs.

Login - add to songbook

Rating click stars to rate

Layout
Accuracy

SHARE PAGE  




You need to log in to post comments