Guitar Tabs, Chords and Lyrics


Push It   Static X



Song:Push it
Artist:Static-X
Album:Wisconsin Death Trip
Tuning:Drop D
Heres a much easier and better sounding way to play this song. Static-X rules!


Intro:
e|-----------------------------------------------------------------------------|
B|-----------------------------------------------------------------------------|
G|-----------------------------------------------------------------------------|
D|-----------------------------------------------------------------------------|
A|-----------------------------------------------------------------------------|
D|--13-0-13-0--13-0-13-0--13-0-13-0--------------------------------------------|

Verse/Chorus:

e|--------------------------------------------|
B|--------------------------------------------|
G|--------------------------------------------|
D|--------------------------------------------|
A|---0020003-0020003-0020003-0020003-0020003--|
D|---0020003-0020003-0020003-0020003-0020003--|


Bridge:
(I see It I need it)
e|------------------------------------------------------------------------------------|
B|------------------------------------------------------------------------------------|
G|------------------------------------------------------------------------------------|
D|------------------------------------------------------------------------------------|
A|---0-13-0-13-0----------------------------------------------------------------------|
D|---0-13-0-13-0----------------------------------------------------------------------|

e|------------------------------------|
B|------------------------------------|
G|------------------------------------|
D|------------------------------------|
A|--------13------13------13------13--|
D|--xxxxxx--xxxxxx--xxxxxx--xxxxxx----|

(My Mind is Corrosive)let it ring out
e|---------------------------------------------------------------------------------|
B|---------------------------------------------------------------------------------|
G|---------------------------------------------------------------------------------|
D|---------------------------------------------------------------------------------|
A|---------------------------------------------------------------------------------|


Important: The song above is NOT stored on the Chordie server. The original song is hosted at www.guitaretab.com. Chordie works as a search engine and provides on-the-fly formatting. Chordie does not index songs against artists'/composers' will. To remove this song please click here.

This song is displayed as text-only. Transposing and tuning is only available for chordpro-songs.

Login - add to songbook

Rating click stars to rate

Layout
Accuracy

SHARE PAGE  




You need to log in to post comments