Guitar Tabs, Chords and Lyrics


Monster   Static X



My first attempt at tabbing so please dont laff if it goes horribly wrong :P
tuning: C-G-C-F-A-D

Intro:

|---------------|    |---------------|          |---------------|
|---------------|    |---------------|          |---------------|
|---------------|    |---------------|          |---------------|
|---------------|    |---------------|          |---------------|
|0-0-0-1-0-0-0-6|    |0-0-0-1-0------|          |0-0-0-1-0-0-0-6|

Verse:

|----------------------------------------------------------------|
|----------------------------------------------------------------|
|----------------------------------------------------------------|
|----------------------------------------------------------------|
|00-00-00-00-00-00-00-00-00-00-00-00-00-00-00-00-00-00-00--------|
|00-00-00-00-00-00-00-00-00-00-00-00-00-00-00-00-00-00-00-0-6-0-6|
 ********************************************************             PM
|-----------------------------------------------|
|-----------------------------------------------|
|-----------------------------------------------|
|-----------------------------------------------|
|-00-00---------00-00---------00-00-------------|
|-00-00-0-6-0-6-00-00-0-6-0-6-00-00-0-6-0-6-----|
 ******         *****         *****                                   PM
Pre-Chorus:

|-------|
|-------|
|8-8-7-7|
|x-x-x-x| x4
|6-6-5-5|
|-------|

Chorus:

|---------------|    |---------------|
|---------------|    |---------------|
|---------------|    |---------------|
|0-0-0-1-0-0-0-6| x7 |0-0-0-1-0-0-0-0| x1
|0-0-0-1-0-0-0-6|    |0-0-0-1-0-0-0-0|
|0-0-0-1-0-0-0-6|    |0-0-0-1-0-0-0-0|

Breakdown:

|---------------|
|---------------|
|---------------| x4
|---------------|
|---------------|
|0-0-0-1-0-0-0-6|

Outro:

|----------------------------------------------------|
|----------------------------------------------------|
|----------------------------------------------------|
|----------------------------------------------------|
|00-00-00-00-00-00-00-00-00-00-00-00-00-00-00--------|
|00-00-00-00-00-00-00-00-00-00-00-00-00-00-00-0-6-0-6|
 ********************************************                         PM
Structure:

Intro
Verse
Pre-Chorus
Chorus
Verse
Pre-Chorus
Chorus
Silence
Breakdown
Pre-Chorus
Chorus
Outro



Important: The song above is NOT stored on the Chordie server. The original song is hosted at www.guitaretab.com. Chordie works as a search engine and provides on-the-fly formatting. Chordie does not index songs against artists'/composers' will. To remove this song please click here.

This song is displayed as text-only. Transposing and tuning is only available for chordpro-songs.

Login - add to songbook

Rating click stars to rate

Layout
Accuracy

SHARE PAGE  




You need to log in to post comments