Guitar Tabs, Chords and Lyrics


Destroyer   Static X



I know static X plays it in Drop C or A or whatever, but i prefer it this way and once 
get this one you can figure it out in whatever tuning your playing this...

Intro and main riff:

|-------------------------------|
|-------------------------------|
|-------------------------------| play this untill the chorus...
|--9-9---9--9-9--9---9--9-9-9---|
|--9-9---9--9-9--9---9--9-9-9---|
|--7-7---7--7-7--7---7 -7-7-7---|

Chorus:

|--5-----5------5-----5---------|
|-----7------7-----7-----7----7-|
|-------------------------------| timing is easy to find out
|-------------------------------|
|-------------------------------|
|-------------------------------|

Bridge:

|-------------------------------|
|-------------------------------|
|-------------------------------|
|---6-------5-------6-------5---|
|---4-------3-------4-------3---|
|---4-------3-------4-------3---|


|-------------------------------|
|-------------------------------|
|-------------------------------| the same thing again
|--9-9---9--9-9--9---9--9-9-9---|
|--9-9---9--9-9--9---9--9-9-9---|
|--7-7---7--7-7--7---7 -7-7-7---|

Couldn't find out the solo... i just know who it starts its not much but ey...

|---------------------------------------------------------------------|
|-0--24--0--24--0--24--0--24-------0--24--0--24--0--24--0--24---------|
|-----------------------------21b------------------------------24b----|
|---------------------------------------------------------------------|
|---------------------------------------------------------------------|
|---------------------------------------------------------------------|



Important: The song above is NOT stored on the Chordie server. The original song is hosted at www.guitaretab.com. Chordie works as a search engine and provides on-the-fly formatting. Chordie does not index songs against artists'/composers' will. To remove this song please click here.

This song is displayed as text-only. Transposing and tuning is only available for chordpro-songs.

Login - add to songbook

Rating click stars to rate

Layout
Accuracy

SHARE PAGE  




You need to log in to post comments