Chordie logo


Dirthouse   Static X



it's very easy but it sounds great

intro
C-----------------|
G-----------------|
D#----------------|
A#-xxx-xxx-xxx-xxx
F--xxx-xxx-xxx-xxx
A#-xxx-xxx-xxx-xxx

verse & chorus
C------------------|
G------------------|
D#-----------------|
A#-----------------|
F--2-2-2-2-2-2-2-2-|
A#-2-2-2-2-2-2-2-2-|
   ............... p.m.

interlude
C--------------------------|
G--15-14-15-14-15-14-15-14-|
D#-------------------------|
A#-------------------------|
F--------------------------|
A#-------------------------|

bridge
C--------------|
G--------------|
D#-------------|
A#-0-------0-0-|
F--0-------0-0-|


Important: The song above is NOT stored on the Chordie server. The original song is hosted at www.guitaretab.com. Chordie works as a search engine and provides on-the-fly formatting. Chordie does not index songs against artists/composers will. To remove this song please click here.

This song is displayed as text-only. Transposing and tuning is only available for chordpro-songs.

Login - add to songbook

Rating click stars to rate

Layout
Accuracy

SHARE PAGE  




You need to log in to post comments