Guitar Tabs, Chords and Lyrics


Teenage Wedding   Status Quo



(You Never Can Tell) Teenage Wedding
Status Quo
Don't Stop 1996


Chords are just C & G.

Link

E|-------------|
B|-------------|
G|-9/10-11/12\-|
D|-9/10-11/12\-|
A|-------------|
E|-------------|


Solo 2:38

E|-5---5-------------------------------------------|
B|---8---8-5---------------------------------------|
G|-----------7-5--7b-7b-rbp5h7p5---5-5-----5-------|
D|-------------------------------7-----5h7---------|
A|-------------------------------------------7-5-3-|
E|-------------------------------------------------|

E|------------------------------8-8-8-8h10-10-10-10h12-12-12-12-10-10-8-|
B|------------------------------8-8-8-8----8--8--8-----8--8--8--8--8--8-|
G|-----------------7b-rbp5h7p5------------------------------------------|
D|-------------5-7------------------------------------------------------|
A|-------3-5/7----------------------------------------------------------|
E|-5-3-5----------------------------------------------------------------|
                                ^^^^^^^^^^^^^^^^^^^^^^^^^^^^^^^^^^^^^^^^
                                These are slides on the recording but
                                        I play them as written.

E|-8-7--------------------------------------------------------|
B|-----8------------------------------------------------------|
G|-------7\5-4-5-6/7-------------------4-5-5b-rb-4-4----------|
D|-------------------5-5---5-5-5---7----------------------5-7-|
A|-------------------------------5---5----------------5h7-----|
E|------------------------------------------------------------|

E|--------------------------------------------------|
B|-----5----10b-10-8-10-8------------------------13-|
G|-4-7---7----------------------4-5-7-9/10/12-14----|
D|--------------------------5h7---------------------|
A|--------------------------------------------------|
E|--------------------------------------------------|

E|----------------------------|
B|-15b-rb-15b-rb-15b-rb-13-13-|
G|----------------------------|
D|----------------------------|
A|----------------------------|
E|----------------------------|


The solo sounds easy but don't be deceived.


Important: The song above is NOT stored on the Chordie server. The original song is hosted at www.guitaretab.com. Chordie works as a search engine and provides on-the-fly formatting. Chordie does not index songs against artists/composers will. To remove this song please click here.

This song is displayed as text-only. Transposing and tuning is only available for chordpro-songs.

Login - add to songbook

Rating click stars to rate

Layout
Accuracy

SHARE PAGE  




You need to log in to post comments