Do It Again

Steely Dan

e|0----|-----|-----|           |x----|-----|-----|

b|-----|-----|--3--| |-----|--5--|-----|
g|0----|-----|-----| |-----|--5--|-----|
d|0----|-----|-----| |-----|--5--|-----|
a|-----|--2--|-----| |x----|-----|-----|
e|0----|-----|-----| |-----|--5--|-----|
 EmAm7

|x----|-----|-----|           |--2--|-----|-----|
|-----|--7--|-----|           |-----|--3--|-----|
|-----|--7--|-----|           |--2--|-----|-----|
|-----|--7--|-----|           |-----|-----|--4--|
|x----|-----|-----|           |--2--|-----|-----|
|-----|--7--|-----|           |--2--|-----|-----|

Bm7 (I) Bm7 (II)

|x----|-----|-----|
|-----|--8--|-----|
|-----|-----|--9--|
|-----|-----|--9--|
|x----|-----|-----|
|-----|--8--|-----|

 Bm/C
 Em
 In the mornin' you go gunnin' for the man who stole your water
 Em
 And you fire till he's done in but they catch you at the border
 Em
 And the mourners are all singin' as they drag you by your feet
 Em
 But the hangman isn't hangin' so they put you on the street

 Am7Bm7Bm/CBm7Em
You go back, Jack, do it again, wheels turinin' 'round and 'round
Am7 Bm7 Bm/C Bm7 Em | | Bm7 (II)
You go back, Jack, do it again,

 Em
 Well you know she's no high climber, then you find your only friend
In a room with your two timer, but you're sure you're near the end
Then you love a little wild one, and she brings you only sorrow
All the time you know she's smilin', you'll be on your knees tomorrow

Chorus

Guitar Solo |
| -> Same chord pattern as verses/chorus
Keyboard Solo |

Now you swear and kick and beg us that you're not a gamblin' man;
Then you find you're back in Vegas with a handle in your hand
Your black cards can bring you money so you hide them when you're able
In the land of milk and honey you must put them on the table

Chorus......


Am7 Bm/C Bm7 Em
variations - click chord images
Transpose chords:
Tuning:
Cool service:
View: Size:
A  A  A
Rating:
Layout:
  • Currently 2.5/5 Stars.
  • 1
  • 2
  • 3
  • 4
  • 5
 
Accuracy:
  • Currently 2.9/5 Stars.
  • 1
  • 2
  • 3
  • 4
  • 5
 
click stars to rate
Chordie recommends:
Learn how to play guitar at JamPlay.com
Songbook:
Login to add this song to your songbook
Support the artist
Preview/buy this song
MSN Music
Why this non-profit ad?

 
login to add comments/video/corrections