Chordie logo


Perfect Waves   Steffen Schackinger



-----------------------------------------------------10p9--------------------|
---12--------------10-----10----12--------------10-------12---------------10-|
-----------------9----------------------------9------------11-----------9----|
-9----9--9h11h12-------11-----9----9--9h11h12------9---------9--9h11h12------|
-----------------------------------------------------------------------------|
-----------------------------------------------------------------------------|

-------------------------------10p9-10p9---------------------------|
-----10---12--------------10------------12--------------10-----10--|
------------------------9-----------------11----------9------------|
--11----9----9--9h11h12------9--------------9-9h11h12-------11-----|
-------------------------------------------------------------------|
-------------------------------------------------------------------|

-----------------------10p9------------------------------------------------|
---12-------------10-------12---------------10-----10---12--------------10-|
----------------9------------11-----------9---------------------------9----|
-9----9-9h11h12------9---------9--9h11h12-------11----9----9--9h11h12------|
---------------------------------------------------------------------------|
---------------------------------------------------------------------------|

This is my first attempt to do a tab, hope you enjoy

I don't know if there is any error in it but i just listened to the video many times and 
again and again.



Important: The song above is NOT stored on the Chordie server. The original song is hosted at www.guitaretab.com. Chordie works as a search engine and provides on-the-fly formatting. Chordie does not index songs against artists/composers will. To remove this song please click here.

This song is displayed as text-only. Transposing and tuning is only available for chordpro-songs.

Login - add to songbook

Rating click stars to rate

Layout
Accuracy

SHARE PAGE  




You need to log in to post comments