Something New In My Life

Stephen Bishop

 FC/EDm
e|-----------5--------5--------8--5-----------5--------|
B|--------6-----6--------6-----------------6-----6-----|
G|-----5-----------5--------5-----------7-----------7--|
D|-----------------------------------------------------|
A|--8-----------------7--------------5-----------------|
E|-----------------------------------------------------|


 CBbCF
e|--8--7--5-----6---5--7--8--8--7----|
B|-----------8-----------------------|
G|-----------------------------------|
D|-----------------------------------|
A|---------------------------8-------|
E|--8-----------6--------------------|


VERSE:
 FC/EDm
e|-----------5--------5--------8--5-----------5--------|
B|--------6-----6--------6-----------------6-----6-----|
G|-----5-----------5--------5-----------7-----------7--|
D|-----------------------------------------------------|
A|--8-----------------7--------------5-----------------|
E|-----------------------------------------------------|

I GUESS I WANTED SOMETHING NEW IN MY LIFE

 BbF/AGmC
e|------------6-----------------5----------------3----8-----7-----5--|
B|---------7-----------------6----------------3---------8-----8------|
G|------6--------6--------5--------5-------3--------------9-----9----|
D|-------------------------------------------------------------------|
A|-------------------------------------------------------------------|
E|--6-----------------5----------------3-----------------------------|

A NEW KEY TO FIT A NEW DOOR

 FC/EDm
e|-----------5--------5--------8--5-----------5--------|
B|--------6-----6--------6-----------------6-----6-----|
G|-----5-----------5--------5-----------7-----------7--|
D|-----------------------------------------------------|
A|--8-----------------7--------------5-----------------|
E|-----------------------------------------------------|

TO WAKE AND SEE A DIFF’RENT VIEW IN MY LIFE

e|---10-------7----------------------|
B|--------0-------------8--------8---|
G|---------------------10---10---9---|
D|---------------------10-------10---|
A|---10-------9----------------------|
E|-----------------------------------|

THE ONE I’VE BEEN WAITIN FOR…..



















Bb C C/E Dm F Gm
variations - click chord images
Transpose chords:
Tuning:
Cool service:
View: Size:
A  A  A
Rating:
Layout:
  • Currently 2.8/5 Stars.
  • 1
  • 2
  • 3
  • 4
  • 5
 
Accuracy:
  • Currently 1/5 Stars.
  • 1
  • 2
  • 3
  • 4
  • 5
 
click stars to rate
Chordie recommends:
Learn how to play guitar at JamPlay.com
Songbook:
Login to add this song to your songbook
Support the artist
Preview/buy this song
MSN Music
Why this non-profit ad?

 
login to add comments/video/corrections