Guitar Tabs, Chords and Lyrics


Satan Is A Lady   Steriogram



-----------------------------------------------------------------------------
			 Satan Is A Lady - Steriogram
-----------------------------------------------------------------------------

Tabbed by: stevie b
Email:stevie_b_@msn.com

Tuning: Standard

Awesome song by Steriogram and loads of fun to play :D

Main riff 1
e|------| |--------------------------|
B|------| |--------------------------|
G|------| |--------------------------|
D|------| |--------------------------|
A|------| |-2------------------------| 
E|-2-3-4| |---4--4--4--4--4--4-2-3-4-|
you get the idea i hope.

verse
e|------------------------|
B|------------------------|
G|------------------------|
D|-6--6---6-4-6---6---6-4-|
A|-6--6---6-4-6---6---6-4-| 
E|-4--4---4-2-4---4---4-2-|
twice followed by:

e|---------------------------|
B|---------------------------|
G|---------------------------|
D|-------------3-----2---4---|
A|-4--4-2------3-----2---4---|
E|--------4--1-1-----0---2---|

Chorus 1
e|-----------------------------------------|
B|-----------------------------------------|
G|-9-9-9-9-8-8-6-6-11-11-11-11-12-12-12-12-|
D|-9-9-9-9-8-8-6-6-11-11-11-11-12-12-12-12-|
A|-7-7-7-7-6-6-4-4-9--9--9--9--10-10-10-10-|
E|-----------------------------------------|

Bridge
e|---------------------------------------------------------------------|
B|---------------------------------------------------------------------|
G|---------------------------------------------------------------------|
D|---------------------------------------------------------------------|
A|---------------------------------2-2-2-2-2-2-2-2-6-6-7-7-7-7-6-6-7-7-|
E|-4-4-4-4-4-4-7-7-6-6-6-6-2-2-2-2-------------------------------------|

e|------------------------------------------------------------------|
B|------------------------------------------------------------------|
G|------------------------------------------------------------------|
D|---------------------------------------------4-4---------5-5-5456-|
A|-6-6-6-6-4-4-2-2-6-6-4-4-2-2-4-4-6-6-6-6-6-6-----7-7-7-7----------|
E|------------------------------------------------------------------|

main riff 2
e|----------------------------------------------------|
B|----------------------------------------------------|
G|--4------------------------4------------------------|
D|----6--6--6--6--6--6-4-5-6---6--6--6--6--6--6-4-5-6-|
A|----------------------------------------------------|
E|----------------------------------------------------|

Other riff
e|-------------------|
B|-------------------|
G|-------------------|
D|-6-5-4-------------|
A|-------6-5-4-6-6-6-|
E|-------------4-4-4-|

Chorus 2
e|-------------------------------------|
B|-------------------------------------|
G|-9-9-9-9-8-8-6-6-11-11-11-11-9-9-9-9-|
D|-9-9-9-9-8-8-6-6-11-11-11-11-9-9-9-9-|
A|-7-7-7-7-6-6-4-4-9--9--9--9--7-7-7-7-|
E|-------------------------------------|

Ending
e|---------------|
B|---------------|
G|---6-6b--4-6-4-|
D|---------------|
A|---------------|
E|---------------|

Order:
Main Riff 1 x12
      Verse x2
Main Riff 1 x4
   Chorus 1
Main Riff 1 x2
      Verse x2
Main Riff 1 x4
   Chorus 1
Main Riff 1 x2
     Bridge
Main Riff 2 x4
 Other Riff
   Chorus 2 x2
   Chorus 1
Main Riff 2 x4
     Ending

There are some slight changes where some
riffs start in place of the ends of others.
Essentially that is it though.

| /  slide up
| \  slide down
| h  hammer-on
| p  pull-off
| ~  vibrato
| +  harmonic
| x  Mute note


Important: The song above is NOT stored on the Chordie server. The original song is hosted at www.guitaretab.com. Chordie works as a search engine and provides on-the-fly formatting. Chordie does not index songs against artists/composers will. To remove this song please click here.

This song is displayed as text-only. Transposing and tuning is only available for chordpro-songs.

Login - add to songbook

Rating click stars to rate

Layout
Accuracy

SHARE PAGE  




You need to log in to post comments