"yes"; ?> core Troubadour by Steve Earle - guitar chords, guitar tabs and lyrics - chordie

core Troubadour

Steve Earle


Intro:
|----------------------|
|---3-3-3--5-3-1--3----|
|---4-4-4--5-4-2--4----|
|----------------------|
|----------------------|
|----------------------|


Bridge 1:
|---------------|
|---0-1-3-1-0---|
|---0-2-4-2-0---|      Em D
|---------------|
|---------------|
|---------------|


Intro/Bridge 2:

 GCGEmD

Verse 1:
 GCD
                                    Girl, well it's too late to lock your door
 G
He's out there hollerin', "Darlin, don't you love me
no more"
 CDGEmD
You always let him in before, now didn't ya'          
 C
He's just singing the same old song that he always
sang before
 CD
 He's the last of the hard-core troubadours

G+BRIDGE (2X)

Verse 2:
 GCD
Girl, better figure out which is which
 GCDG
 Wherefore art thou Romeo you son of a bitch
 EmD
You'd just as soon fight as switch, now wouldn't ya'
 C
He come to make love on your satin sheets, wake up on
your living room floor
 CD
 He's the last of the hard-core troubadours

G+BRIDGE (2X)

Chorus 1:
 CD
 He's the last of the all-night, do-right,
 GC
 stand beneath your window 'til daylight,
 CDEm
 He's the last of the hard-core troubadours
 D
 Tell me what you're waitin' for

Guitar Solo:
|----------------------------------------------|
|------6-6-6-6-5-3-5-3-0-0-0-1-6-6-6-6-5-3-5---|
|------0-0-0-0-0-0-0-0-0-0-0-0-0-0-0-0-0-0-0---|     

 EmD
|------0-0-0-0-0-0-0-0-0-0-0-0-0-0-0-0-0-0-0---|
|----------------------------------------------|
|----------------------------------------------|


Verse 3:
 GCD
                                     Girl, better figure out what you're gonna do
 GCDG
                                     When he moves off again and he leaves you lonely and
blue
 EmD
 You knew he's just passin' through, now didn't ya'
 GC
You can just tell yourself it's the last time baby,
like you always did before
 CD
 He's the last of the hard-core troubadours

G+Bridge (2X)

Ending:

         |---------------|
         |---0-1-3-1-0---|
    G    |---0-2-4-2-0---|       G
         |---------------|
         |---------------|
         |---------------|


Tabbed by Doc


C D Em G
variations - click chord images
Transpose chords:
Tuning:
Cool service:
View: Size:
A  A  A
Rating:
Layout:
  • Currently 1/5 Stars.
  • 1
  • 2
  • 3
  • 4
  • 5
 
Accuracy:
  • Currently 1/5 Stars.
  • 1
  • 2
  • 3
  • 4
  • 5
 
click stars to rate
Chordie recommends:
Learn to play songs at Jamplay.com with video guitar lessons
Songbook:
Login to add this song to your songbook
Support the artist
Preview/buy this song
MSN Music
Why this non-profit ad?

 
login to add comments/video/corrections