Chordie logo

Galway Girl   Steve Earle



-------------------------------------------------------------------------------
			     Steve Earle-Galway Girl
-------------------------------------------------------------------------------
Tabbed by:Emmett Daly
Email:therealemmettdaly@hotmail.com

Hey all this is my first submitted tab. I was searching for how to play this song
but all i could find was chords. I managed to figure out the instrumental bits
in the middle. 

Feel free to correct me.

Tuning: standard

e|---------------------------------------------------------------------------|
B|------------------------------------12--12--12--12--12--14--12--10---------|
G|-9/11--9------9-11-11-11-11--9--------------------------------------12-----|
D|---------12---------------------12-----------------------------------------|
A|---------------------------------------------------------------------------|
E|---------------------------------------------------------------------------|

e|---------------------------------------------------------------------------|
B|-12--14--12---10--12--10---------------------------------------------------|
G|--------------------------12--11--9--11-----9h11---9-----------------------|
D|-------------------------------------------------------12--12--------------|
A|---------------------------------------------------------------------------|
E|---------------------------------------------------------------------------|



| /  slide up
| \  slide down
| h  hammer-on
| p  pull-off
| ~  vibrato
| +  harmonic
| x  Mute note


Important: The song above is NOT stored on the Chordie server. The original song is hosted at www.guitaretab.com. Chordie works as a search engine and provides on-the-fly formatting. Chordie does not index songs against artists/composers will. To remove this song please click here.

This song is displayed as text-only. Transposing and tuning is only available for chordpro-songs.

Login - add to songbook

Rating click stars to rate

Layout
Accuracy

SHARE PAGE  



You need to log in to post comments