"yes"; ?> Errol Smith by Steve Morse - guitar chords, guitar tabs and lyrics - chordie

Errol Smith

Steve Morse

 EEEEEEEEEEEEEEEE
|---------------------|-----------------------------|
|---------------------|-----------------------------|
|-2-------------------|---2-------------------------|
|-2-----2-------------|---2-----2--------2---x-x----|
|-0-----2-------0-1-2-|---0-----2------------x-x----|
|---3b4-0---3-4-------|-----3b4-0----3-4-----x-x----|


 EEEEEEEEEEEEE
|---------------------|---------------------|
|---------------------|---------------------|
|-2-------------------|---2-----------------|
|-2-----2-------------|---2-----2---4--5----|
|-0-----2-------0-1-2-|---0-----2---4--5----|
|---3b4-0---3-4-------|-----3b4-0---2--3----|


Rhythm 2
 EEEEEEEEEEE
||-------------------------------||
||o-----------------------------o||
||--2-----2----------------------||
||--2-----2--4---------2-5-4-----||
||o-0-3-4--------0h3s4----------o||
||-------------------------------||


 EEEEEEEEEEEEEEEEE
|---------------------------------------------------|
|---------------------------------------------------|
|-5-----5---------------------5-----5------5--------|
|-5-----5--7--------5-8--7----5-----5--7---5---3----|
|---6-7---------6s7-------------6-7------------3----|
|----------------------------------------------1----|


 EEEEEEEEEEEEEEEEEE
|-----------------------------------------------------|
|-----------------------------------------------------|
|-5-----5---------------------5-5-5-5-5-5-7-----------|
|-5-----5--7--------5-8--7----5-5-5-5-5-5-7-----------|
|---6-7---------6s7-----------------------------------|
|----------------------------------------------3b4----|


Rhythm 3
 EEEEEEEEEEEEEEEEEE
|----------------------------------------------------|
|----------------------------------------------------|
|-4--4-2--2---------------4--4-2--2---2--------------|
|-4--4-2--2-5-4-2---------4--4-2--2-4-2-2------------|
|-2--2-0--0-5-4-2---2-----2--2-0--0-4-0-2---2--------|
|-----------3-2-0---0-3b4-----------2---0---0-3b4----|


 EEEEEEEEEEEEEEEEEEEE
|------------------------------------------------------|
|------------------------------------------------------|
|-4--4-2--2---------------4--4-2--2---2----------------|
|-4--4-2--2-5-4-2---------4--4-2--2-4-2-4-7-9-11-14----|
|-2--2-0--0-5-4-2---2-----2--2-0--0-4-0-2-5-7--9-12----|
|-----------3-2-0---0-3b4-----------2------------------|


Bridge
E E E E E E E E E E E E E E E 4x
||-----------------------------------------------||
||o-7h8--7-5--7h8-8----7h8--7-------------------o||
||--7-9--7-6--7-9-9----7-9--7--2-----------------||
||--7----7-7--7---7----7----7--2-----------------||
||o----------------------------0-----------0----o||
||-----------------------------------0h3h4-------||


Duration Legend
---------------
W - whole; H - half; Q - quarter; E - 8th; S - 16th; T - 32nd; X - 64th; a - acciaccatura

+ - note tied to previous; . - note dotted; .. - note double dotted
Uncapitalized letters represent notes that are staccato (1/2 duration)
Irregular groupings are notated above the duration line
Duration letters will always appear directly above the note/fret number it represents the
duration for. Duration letters with no fret number below them represent rests. Multi-
bar rests are notated in the form Wxn, where n is the number of bars to rest for. Low
melody durations appear below the staff

Tablature Legend
----------------

h - hammer-on
p - pull-off
b - bend
pb - pre-bend
r - bend release (if no number after the r, then release immediately)
/\ - slide into or out of (from/to "nowhere")
s - legato slide
S - shift slide
- natural harmonic
(n) - artificial harmonic
n(n) - tapped harmonic
~ - vibrato
tr - trill
T - tap
TP - trem. picking
PM - palm muting
\n/ - tremolo bar dip; n = amount to dip
\n - tremolo bar down
n/ - tremolo bar up
/n\ - tremolo bar inverted dip
= - hold bend; also acts as connecting device for hammers/pulls
<> - volume swell (louder/softer)
x - on rhythm slash represents muted slash
o - on rhythm slash represents single note slash

Misc Legend
-----------

| - bar
|| - double bar
||o - repeat start
o|| - repeat end
*| - double bar (ending)
: - bar (freetime)
$ - Segno
& - Coda
Tempo markers - = BPM(8/16=s8/s16), where s8 = swing 8ths, s16 = swing 16ths

***************************************************************************************
* Generated using Power Tab Editor by Brad Larsen - http://powertab.guitarnetwork.org *
***************************************************************************************


E
variations - click chord images
Transpose chords:
Tuning:
Cool service:
View: Size:
A  A  A
Rating:
Layout:
  • Currently 3.8/5 Stars.
  • 1
  • 2
  • 3
  • 4
  • 5
 
Accuracy:
  • Currently 3.6/5 Stars.
  • 1
  • 2
  • 3
  • 4
  • 5
 
click stars to rate
Chordie recommends:
Learn to play songs at Jamplay.com with video guitar lessons
Songbook:
Login to add this song to your songbook
Support the artist
Preview/buy this song
MSN Music
Why this non-profit ad?

 
login to add comments/video/corrections