The Wind

Cat Stevens

Intro
 D5
E |-------5------------5-----|-------5------------5------|
B |--3------------3----------|--3------------3-----------|
G |-----2---2--------2---2---|-----2---2--------2----2---|
D |--0------------0----------|--0------------0-----------|
A |--------------------------|---------------------------|
E |--------------------------|---------------------------|


 D5D4DD2G6Asus7A7Asus7
E |-------5-----3--p2--p0----|---0------0----------------|
B |--3---------------------3-|---3---3------3---2--h3----|
G |-----2---2----------------|--------------0------------|
D |--0----------0------------|---------------------------|
A |--------------------------|--------------0------------|
E |--------------------------|---3-----------------------|


 D5D4DD2G6Asus7A7Asus7
E |-------5-----3--p2--p0----|---0------0----------------|
B |--3---------------------3-|---3---3------3---2--h3----|
G |-----2---2----------------|--------------0------------|
D |--0----------0------------|---------------------------|
A |--------------------------|--------------0------------|
E |--------------------------|---3-----------------------|  


Verse 1

 D5D4DD2G6
   I list-en to the wind,

 Asus7A7Asus7D5D4DD2G6Asus7A7Asus7
To the wind  of  my   soul,                           

 D5D4DD2G6
   Where I'll end up, well, I think,

 Asus7A7Asus7D5D4DD2G6Asus7A7Asus7
Only God reall-y knows,                          

 GAGADEmGEmGA4A
   I've sat upon the sett-ing sun,   but never, nev-er, nev-er, nev-er,
 GAGADD2D
   I never wanted wat-er once-------, 

 EmGEmAGD5D4DD2G6Asus7A7Asus7A7Asus7
     No, never, nev-er, nev-er!                                   

 D5D4DD2G6Asus7A7Asus7D5

Verse 2

 D5D4DD2G6
    I list-en to my words,

 Asus7A7Asus7D5D4DD2G6Asus7A7Asus7
But they fall far   be -low,                           

 D5D4DD2G6
    I let my music take me

 Asus7A7Asus7D5D4DD2G6Asus7A7Asus7
Where my heart wants to   go,                          

 GAGADEmGEmGA4A
    I swam upon the dev-il's lake,   but never, nev-er, nev-er, nev-er,
 GAGADD2D
   I'll never make the same mis-take-------, 

 EmGEmAGD5D4DD2G6Asus7A7Asus7A7Asus7
     No, never, nev-er, nev-er!                                    

 D5D4DD2G6Asus7A7Asus7D5

-------------------------------------------------------------------------


CHORDS:

 D5D4DD2G6Asus7A7
  xx0235   xx0233   xx0232  xx0230   320030   x02030  x02020

 AA4GEm
  x02220   x02230   320033  022000

This variation on the main riff, has an extra hammer-on with the
Asus7, & appears in the first 2 bars at the end of each verse:

 D5D4DD2G6Asus7A7Asus7A7Asus7
E |-------5-----3--p2--p0----|---0------0----------------------|
B |--3---------------------3-|---3---3------3---2--h3----2--h3-|
G |-----2---2----------------|--------------0------------------|
D |--0----------0------------|---------------------------------|
A |--------------------------|--------------0------------------|
E |--------------------------|---3-----------------------------|



A A4 A7 Asus7 D D2 D4 D5 Em G G6
variations - click chord images
Transpose chords:
Tuning:
Cool service:
View: Size:
A  A  A
Rating:
Layout:
  • Currently 2.9/5 Stars.
  • 1
  • 2
  • 3
  • 4
  • 5
 
Accuracy:
  • Currently 2.9/5 Stars.
  • 1
  • 2
  • 3
  • 4
  • 5
 
click stars to rate
Chordie recommends:
Get acoustic guitar lessons and electric guitar lessons at JamPlay.com
Songbook:
Login to add this song to your songbook
Support the artist
Preview/buy this song
MSN Music
Why this non-profit ad?

 
login to add comments/video/corrections