Guitar Tabs, Chords and Lyrics


Gotta Gettaway  Stiff Little Fingers



-------------------------------------

[-----]                              Play x3
||--3-x-x-3-x-x-2-x-2-x-0-x---------||-3----------------------------|
||o-3-x-x-3-x-x-3-x-3-x-0-x-3------o||-3----------------------------|
||--------------------------2-------||-0----------------------------|
||o--------------------------------o||-0------------X\--------------|
||----------------------------------||-2------------X\--------------|
||----------------------------------||-3----------------------------|

Pick slide
Play x3-----------------------|

G G D | D Em D | G
1 2 3 4 | 1 2 3 4 | 1 2 3 4


Intro Riff (bass arr. for gtr)
------------------------------

            [G]                 [Em]                     [D]                                     
E !-------------------!------------------!-------------------!
B !-------------------!------------------!-------------------!
G !-------0-0-0-0-h-2-!-------0----------!-------------------!
D !-0-h-2-------------!-2-2-2---2--------!-0-0-0-------0-0-0-!
A !-------------------!------------------!-------0-h-2-------!
E !-------------------!------------------!-------------------!


            [G]                 [Em]                     [D]                                     
E !-------------------!------------------!-------------------!
B !-------------------!------------------!-------------------!
G !-------0-0-0-0-h-2-!-------0----------!-------------------!
D !-0-h-2-------------!-2-2-2---2--------!-0-0-0-------0-0-0-!
A !-------------------!------------------!-------0-h-2-------!
E !-------------------!------------------!-------------------!




More Intro Chords
-----------------


G D C G (x4)

Verse 1
-------

[G]You know there [D]ain't no [C]street like [G]home
[G]To make you [D]feel so [C]all a[G]lone
[G]So many [D]folk to tell you [C]what to [G]do
[G]But they don't [D]speak the same [Em]language as [D]you

Chorus
------

Play x3
||--3-x-x-3-x-x-2-x-2-x-0-x---------||----------------------------------|
||o-3-x-x-3-x-x-3-x-3-x-0-x-3------o||-3-3-3-3-3-3-3-3-3----------------|
||--------------------------2-------||-2-2-2-2-2-2-2-2-2----------------|
||o--------------------------------o||-0-0-0-0-0-0-0-0-0----------------|
||----------------------------------||----------------------------------|
||----------------------------------||----------------------------------|

1. They want to have me here
2. Have me and hold me near
3. Hold me down and fasten and tie

[Em]But [D]the [G]cars are [D]all pas[Em]sin' [D]me
[G]Bright lights [D]are flas[Em]hin' [D]me
[G]I feel [D]life pas[Em]sin' [D]me [G]by


Verse 2 (Same chords as verse 1)
--------------------------------

The fuss is buzzin' in my head
My father argued and my mother begged
It's not their words ain't tuggin' at me
But gotta stretch them, break them, get myself free


{Fade out with intro riff and singing 'gotta, gotta, gettaway' as many
times as you like}

Outro gtr riff
|--------------------|----------------------------------|
|--------------------|-----------------12----12-15-p-12-|
|-12-----12----------|--------------14----14------------|
|-----12----14----14-|-12b14r12-------------------------|
|--------------14----|----------------------------------|
|--------------------|----------------------------------|



Originally tabbed by : Gordon Johnston
Internet address : 328gj@alph1.dev.esoc.esa.de

Important: The song above is NOT stored on the Chordie server. The original song is hosted at www.guitaretab.com. Chordie works as a search engine and provides on-the-fly formatting. Chordie does not index songs against artists'/composers' will. To remove this song please click here.

Text color:
Chord color:
Chord grids: 
Font size:    
Page size: 

C D Em G
variations - click chord images

Login - add to songbook

Transpose chords

Tuning

Rating click stars to rate

Layout
Accuracy

SHARE PAGE  




You need to log in to post comments