eToCache5 = ""; ?> After The Rain by Sting - guitar chords, guitar tabs and lyrics - chordie

After The Rain

Sting

                                                     ---------------------------------------------------

--------------------------------------------------

 Cm7
----------------------------|-------------------------|----------------------------|
-------------3-4-3--------|--------------------------|-----------------------------|
---5-5-5------------5-3--|-3-5--------------------|----3-3-3-3-3-2--1--------------|        2x
----------------------------|-------------------------|----------------------------|
-3-------------------------|-------------------------|--3--------------------------|
----------------------------|-------------------------|----------------------------|


 Cm7
---------------------|-----------------|------------------------|----------------------|
---------------------|-----------------|------------------------|----------------------|
-3-3-3-3-3-3----|-3-3-3-3-5-7-|-3-3-3-3-3-3-3-3-|-3-3-3-3-3-2-0------------------------|   play throughout verses
---------------------|-----------------|------------------------|----------------------|
-3------------------|-----------------|-3---------------------|---------------------|--|
---------------------|-----------------|------------------------|----------------------|


 Cm7
 The palace guards are all sleeping
Their fires burn into the night
There's a threat of rain on the dark horizon
And all that's left is a quarter moon of light

 Cm7
 He climbs up through the darkness
No weapon but his surprise
The greatest thief in the high Sahara
 EbG5
 Enters the room where the sleeping princess lies

 Cm7
 All your money, your pretty necklace
 F
 This is my work on such a night
 Eb
 There's a storm coming over the mountain
 G5
 I'll be gone long before the morning

 FBb/FF
 After the rain has fallen  
 EbDbEb
 After the tears have washed your eyes        
 FBb/F
 You'll find that I've taken nothing that
 EbDb
 Love can't replace in the blink of an eye                   

 Cm7
 He was as gentle as the night wind
As no lover had been before
And the rings she wore for her bridegroom
 EbG5
 Slipped from her finger and fell to the floor

 Cm7
 Take me with you, take me with you
 F
 Before my lonely life is set
 Eb
 I've been promised to another
 G5
 To a man I've never even met

 FBb/FF
 After the rain has fallen   
 EbDbEb
 After the tears have washed your eyes        
 FBb/F
 You'll find that I've taken nothing that
 EbDb
 Love can't replace in the blink of an eye                  
 FBb/FF
 After the thunder's spoken and  
 EbDbEb
 After the lightning bolt's been hurled      
 FBb/FF
 After the dream has broken, there'll  
 Eb
 Still be love in the world

-----------------------------------------------------------|
-----------------------------------------------------------|
-----------------------------------------------------------|
------------6---------8----------6-----------8-------------|
------6-8-----6--8------6--8-------6--8--------------------|
-6---------------------------------------------------------|


 Eb
 She said take me to another life
 Eb
 Take me for a pirate's wife
 Ab
 Take me where the wind blows
 Ab
 Take me where the red wine flows
 Db
 Take me to the danger
 Db
 Take me to the life of crime
 Gb
 Take me to the stars
 Gb
 Take me to the moon while we still have time

Ab | Db/Ab Ab | * chorus in Ab
Gb5 | E5 E5 Gb |
Ab | Db/Ab Ab |
Gb5 | Eb5
second chorus


Ab Bb/F Cm7 Db Eb F G5 Gb
variations - click chord images
Transpose chords:
Tuning:
Cool service:
View: Size:
A  A  A
Rating:
Layout:
  • Currently 0/5 Stars.
  • 1
  • 2
  • 3
  • 4
  • 5
 
Accuracy:
  • Currently 0/5 Stars.
  • 1
  • 2
  • 3
  • 4
  • 5
 
click stars to rate
Chordie recommends:
Learn how to play guitar at JamPlay.com
Songbook:
Login to add this song to your songbook
Support the artist
Preview/buy this song
MSN Music
Why this non-profit ad?

 
login to add comments/video/corrections