Chordie logo


Bother   Stone Sour



Standard Tuning

Intro
5---5-----------------------5-------------------
6---5-5-6-5-----------------6-5-6-5-------------
7---5-------5-7-5--------7--7-------5-7-5-------
7---5-------------5-7-5--7----------------5-7-5-
5---5--------------------5----------------------
------------------------------------------------

Verse
"Wish I was....."             "Self reflection fades"

5-------5-------5-------5------3---------------5---5-------------------
6-------5-------6-------5------3---------------6---5-5-6-5-------------
7-------5-------7-------5------5---------------7---5-------5-7-5-------
7-------5-------7-------5------5---------------7---5-------------5-7-5-
5-------5-------7-------5------3---------------5---5-------------------
---------------------------------------------------5-------------------
*Repeat

Chorus

"You don't need to bother"     "I don't need to be"

5------------------5------------5----------------5-5-5-5-5-5-5-5-
6------------------5------------6----------------5-5-5-5-5-5-5-5-
7------------------5------------7----------------6-6-6-6-6-6-6-6-
7------------------5------------7----------------7-7-7-7-7-7-7-7-
5------------------5------------7----------------7-7-7-7-7-7-7-7-
-------------------------------------------------5-5-5-5-5-5-5-5-

"I'll keep slippin futher"     "Once I hold on won't let.......

5------------------5------------3------3-3-3-3-5-----5---  *Back to Intro*
6------------------5------------3------3-3-3-3-6-----5---
7------------------5------------5------5-5-5-5-7-----5---
7------------------5------------5------5-5-5-5-7-----5---
5------------------5------------3------3-3-3-3-5-----5---
---------------------------------------------------------



Important: The song above is NOT stored on the Chordie server. The original song is hosted at www.guitaretab.com. Chordie works as a search engine and provides on-the-fly formatting. Chordie does not index songs against artists/composers will. To remove this song please click here.

This song is displayed as text-only. Transposing and tuning is only available for chordpro-songs.

Login - add to songbook

Rating click stars to rate

Layout
Accuracy

SHARE PAGE  




You need to log in to post comments