E5F#5
e:-------------------------------------------------|
B:-------------------------------------------------|  X2 for the
G:--------2----------------------------------------|  intro
D:--------2--3-----4--4--4-4-4--x-x-4---4-4--4-4---|
A:--2-----0--3-----4--4--4-4-4--x-x-4---4-4--4-4---|  X2 for the
E:--0--3-----3-----2--2--2-0-2--x-x-2---0-2--2-2---|  verse


Pre-chorus:
 Cb5C5
e:------------------------------------------------|
B:------------------------------------------------|
G:------------------------------------------------|
D:-9-9----9-----9---9-9-9-9--9--10-10-10-10---x-x-|
A:-9-9----9-----9---9-9-9-9--9--10-10-10-10---x-x-|
E:-7-7----7-----7---7-7-7-7--7--8--8--8--8----x-x-|

they got these pictures of everything

 F5
e:------------------------------------------------|
B:------------------------------------------------|
G:------------------------------------------------|
D:-3------3------3-3------3------3------3-3-------|
A:-3-x-x--3-x-x--3-3-x-x--3-x-x--3-x-x--3-3-x-x---|
E:-1-x-x--1-x-x--1-1-x-x--1-x-x--1-x-x--1-1-x-x---|

to break us down yeah to break me down

 Cb5C5
e:------------------------------------------------|
B:------------------------------------------------|
G:------------------------------------------------|
D:-9-9----9-----9---9-9-9-9--9--10-10-10-10---x-x-|
A:-9-9----9-----9---9-9-9-9--9--10-10-10-10---x-x-|
E:-7-7----7-----7---7-7-7-7--7--8--8--8--8----x-x-|

they make us hate and we make it bleed

Chorus:
 D5A5C5D5/AA5F5Bb5
    But i got a lover and,  yeah, she shows me how      

G5 F5 Bb5 xxxx C5 G5 C5 D5
to understand it, yeah to understand

 A5C5D5/AA5F5Bb5
   I got a brother and,   well, he shows me how       

G5 F5 Bb5 xxxx C5 G5
to make amends, yeah to make amends with it.

Verse 2:
Use the verse riff and do tremolo picking on this note during the whole
verse:
 e:------|

B:--4---|
 G:------|
 D:------|
 A:------|
 E:------|


Pre-chorus:
same as the first

chorus:
same

solo:
maybe a tab later....but it's played over the main riff (X2)

Chorus:
same again

outro:
G5 A5 C5 F#5 Fmaj7sus2 ?????
e:---------------------0----|
B:---------------------0----|
G:--------5---------x--0----|
D:--5--7--5----4----x--3----|
A:--5--7--3----4----x--3----|
E:--3--5-------2----x--1----|


CHORDS
A5: 577xxx
D5: x577xx
C5: x355xx
F5: 133xxx
G5: 355xxx
D5/A: 5577xx
Bb5: x133xx

LYRICS:
Fine place for a day full of breakdowns
takes more than a meltdown to show us how
Throw a tak on the road start the meatplow
Got a bullet but it aint mine

They got these pictures of everything
To break us down, yeah to break us (me) down
They make us hate and we make it bleed

But i got a lover and, yeah, she shows me how
to understand it, yeah, to understand
I got a brother and well he shows me how
to make amends, yeah to make amends with it.

Take a break from the mouse trap we call home
takes more than a message to make me smile
i can fell when she kisses me sleeping
But not when the news is on.

(pre-chorus) }
} X2
(chorus) }

Thats it. It's a simple song to play. All corrections are very welcome.

Have fun, drink milk
J.P.


A5 Bb5 C5 D5 D5/A E5 F#5 F5
variations - click chord images
Transpose chords:
Tuning:
Cool service:
View: Size:
A  A  A
Rating:
Layout:
  • Currently 2.5/5 Stars.
  • 1
  • 2
  • 3
  • 4
  • 5
 
Accuracy:
  • Currently 3/5 Stars.
  • 1
  • 2
  • 3
  • 4
  • 5
 
click stars to rate
Chordie recommends:
Learn to play guitar with video-based, online guitar lessons at JamPlay.com
Songbook:
Login to add this song to your songbook
Support the artist
Preview/buy this song
MSN Music
Why this non-profit ad?

 
login to add comments/video/corrections