Pretty Penny

Stone Temple Pilots

guitar #1  |----------3-|-3---3-3-------|

|----------2-|-2---2-2-------|
|-4--4-2---0-|-0---0-0--x--x-|
|-2--2-2---0-|-0---0-0-------|
|----------0-|-0---0-0-------|
|------------|---------------|
guitar #2 |------------|---------------|
|------------|---------------|
|-4--4-2-----|---------------|
|-2--2-2-x-4-|-5---5-5--x-x--|
|--------x-4-|-5---5-5--x-x--|
|-0--0-0-x-2-|-3---3-3--x-x--|
guitar #1 |-------0-----|-------0-----|-------0-----|
|-------5-----|-------5-----|-------5-----|
|-8-8-8-8-8-8-|-8-8-8-8-8-8-|-8-8-8-8-8-8-|
|-7-7-7---7-7-|-7-7-7---7-7-|-7-7-7---7-7-|
|-0-0-0---0-0-|-0-0-0---0-0-|-0-0-0---0-0-|
|-------------|-------------|-------------|
guitar #2 |-0-----0-----|-0-----0-----|-0-----0-0---|
|-4-5B--4-----|-2-----0-----|-0-2h--2-4---|
|-------------|-------------|-------------|
|-------------|-------------|-------------|
|-------------|-------------|-------------|
|-------------|-------------|-------------|
guitar #1 |-0---| |-0---|
|-11--| |-0---|
|-11--| strum this and then this -> |-11--|
|-9---| |-9---|
|-11--| |-11--|
|-0---| |-0---|
guitar #2 |-----0---0--|
|-----0---0--|
|-----4---4--|
|-2---2---2--|
|-2----------|
|-0----------|
------
------
---------------
---------------

 E5F#5A5
e|------------------------------------|
B|------------------------------------|
G|------------------------------------|
D|-2-----2--2--X--4--5-----5--5--X--X-|<-see below about this line
A|-2-----2--2--X--4--5-----5--5--X--X-|
E|-0-----0--0--X--2--3-----3--3--X--X-|

have you seen your
mo - ther girl?

It is difficult to tell whether 3 notes are being played or if only two notes.

---------------

Verse- Guitar 2
---------------


This is the main riff, the one you hear...

 E5A5Gadd#11G5
|-------------------3-----3--3-------|
|-------------------2-----2--2-------|
|-4-----4--2--X--0--0-----0--0--X--0-|
|-2-----2--2--X--0--0-----0--0--X--0-|
|----------------0-------------------|
|------------------------------------|

have you seen your
mo - ther girl?

Every 4th time substitute the following for the above:

|-------------------3--3--3--3--3--3-|
|-------------------2--2--2--2--2--2-|
|-4-----4--2--X--0--0--0--0--0--0--0-|
|-2-----2--2--X--0--0--0--0--0--0--0-|
|----------------0-------------------|
|------------------------------------|
There are          |3--3--3-/4-\3--0-|
variations to this |2--2--2-/3-\2--0-|
part... this is    |0--0--0--0--0--0-|
the most common.   |0--0--0--0--0--0-|


*note* there are no variations before the second verse...

Listen to the CD for other variations...

----------------

Chorus- Guitar 1
----------------


The chorus is also very easy.... pick the strings pretty hard for this part
and listen to the CD if you can't get the rhythm...

 A
e|0--0--0--0--0----0----0---|
B|5--4--2--0--0h2--2/4--4h5-| repeat

\____________________________ chorus ends here
gone when...

----------------

Chorus- Guitar 2
----------------


This is played steadily and quickly behind the guitar 1 part.

(e)|0-0-0-0-0-0-0-0-0-|
(B)|4-4-4-4-5-4-4-4-4-| repeat
-----------------------

1st Interlude- Guitar 1
-----------------------


E Guitar one plays the open E chord in the following manner:

0
0 1 2 3 1 (I included picking instructions for a general
1       /-----/--/--/-----/    idea of how it goes, you don't have to be

2 | | | | precise about it)
2 | | | |downstroke pick all strings
0 | | |*lightly* upstroke pick strings
| |downstroke pick all strings
|downstroke pick bottom 2 strings

-----------------------

1st Interlude- Guitar 2
-----------------------


This is the first nifty little interlude...

 E
play 4 times |-7-----------7---7---7-|
             |-0-----------0---0---0-|
             |-4-----------4---4---4-|
             |-6-----------6---6---6-|
             |-7-------7---7---7---7-|
             |-0-------0---0---0---0-| then...


 Eadd9
play 4 times |-0-----------0---0---0-|
             |-7-----------7---7---7-|
             |-4-----------4---4---4-|
             |-6-----------6---6---6-|
             |-7-------7---7---7---7-|
             |-0-------0---0---0---0-| then...


 Eadd#11E
play 3 times |-6-----------6---6---6-|-7-----------7---7---7-|
             |-0-----------0---0---0-|-0-----------0---0---0-|
             |-4-----------4---4---4-|-4-----------4---4---4-|
             |-6-----------6---6---6-|-6-----------6---6---6-|
             |-7-------7---7---7---7-|-7-------7---7---7---7-|
             |-0-------0---0---0---0-|-0-------0---0---0---0-| then...
             |-6-----------6---6---6-|-7---7---7---7---7---7-|
             |-0-----------0---0---0-|-0---0---0---0---0---0-|
             |-4-----------4---4---4-|-4---4---4---4---4---4-|
             |-6-----------6---6---6-|-6---6---6---6---6---6-|
             |-7---7---7---7---7---7-|-7---7---7---7---7---7-|
             |-0---0---0---0---0---0-|-0---0---0---0---0---0-|
-----------------------

2nd Interlude- Guitar 2
-----------------------


The second interlude is very similar to the first interlude. Guitar 1 is the
same in both interludes.

 Eadd9
play 4 times |-0-----------0---0---0-|
             |-7-----------7---7---7-|
             |-4-----------4---4---4-|
             |-6-----------6---6---6-|
             |-7-------7---7---7---7-|
             |-0-------0---0---0---0-| then...


 Eadd9
play 4 times |-4-----------4---4---4-|
             |-7-----------7---7---7-|
             |-4-----------4---4---4-|
             |-6-----------6---6---6-|
             |-7-------7---7---7---7-|
             |-0-------0---0---0---0-| then...


 Eadd#11E
play 3 times |-6-----------6---6---6-|-7-----------7---7---7-|
             |-0-----------0---0---0-|-0-----------0---0---0-|
             |-4-----------4---4---4-|-4-----------4---4---4-|
             |-6-----------6---6---6-|-6-----------6---6---6-|
             |-7-------7---7---7---7-|-7-------7---7---7---7-|
             |-0-------0---0---0---0-|-0-------0---0---0---0-| then...
             |-6-----------6---6---6-|-7---7---7---7---7---7-|
             |-0-----------0---0---0-|-0---0---0---0---0---0-|
             |-4-----------4---4---4-|-4---4---4---4---4---4-|
             |-6-----------6---6---6-|-6---6---6---6---6---6-|
             |-7---7---7---7---7---7-|-7---7---7---7---7---7-|
             |-0---0---0---0---0---0-|-0---0---0---0---0---0-|


Thats the whole song!

I'm not perfect, and I hate idiots who think they are. So if something is
wrong with this, email me or just post it or correct it or whatever.

Any corrections, comments, questions, fan mail, whatever, email
pmata@canario.cic.itcr.ac.cr or kermit@enterprise.winternet.com


A A5 E E5 Eadd#11 Eadd9 F#5 G5 Gadd#11
variations - click chord images
Transpose chords:
Tuning:
Cool service:
View: Size:
A  A  A
Rating:
Layout:
  • Currently 0/5 Stars.
  • 1
  • 2
  • 3
  • 4
  • 5
 
Accuracy:
  • Currently 0/5 Stars.
  • 1
  • 2
  • 3
  • 4
  • 5
 
click stars to rate
Chordie recommends:
Get acoustic guitar lessons and electric guitar lessons at JamPlay.com
Songbook:
Login to add this song to your songbook
Support the artist
Preview/buy this song
MSN Music
Why this non-profit ad?

 
login to add comments/video/corrections