eToCache5 = ""; ?> Interstate Love Song by Stone Temple Pilots - guitar chords, guitar tabs and lyrics - chordie

Interstate Love Song

Stone Temple Pilots



 EAsus2G#sus4G#AE
-0--0-0-0--0--0-0-0-|4--4---4-----4-4-4-|5-5-5-5-5-5-5-0--0|
-0--0-0-0--0--0-0-0-|4--4---4-----4-4-4-|5-5-5-5-5-5-5-0--0|
-1--1-1-1--2--2-2-2-|6--6-*-5-----5-5-5-|6-6-6-6-6-6-6-0--1|
-2--2-2-2--2--2-2-2-|6--6-*-6--6--6-6-6-|7-7-7-7-7-7-7----2|
-2--2-2-2--0--0-0-0-|6--6-*-6--6--6-6-6-|7-7-7-7-7-7-7----2|
-0--0-0-0--0--0-0-0-|4--4-*-4--4--4-4-4-|5-5-5-5-5-5-5----0|

 E
-0--0--0-0-0-------0|0-0----0-----0-0-0-|0-0-0---0--0-0-0-0|
-2b-2b-0-0-------0--|0-0--*-0-----0-0-0-|0-0-0-*-0--0-0-0-0|
---------2---1h2----|1-1--*-1-----1-1-1-|1-1-2-*-1--1-1-1-1|
--------------------|2-2--*-2---2-2-2-2-|2-2-2-*-2--2-2-2-2|
--------------------|2-2--*-2---2-2-2-2-|2-2-2-*-2--2-2-2-2|
--------------------|0-0----0---0-0-0-0-|0-0-0---0--0-0-0-0|

Verses
 C#mG#/B#C#mA
-4--4--4-4-4--4-4-4-|-3--3--3-3-3--3-3--|-4--4--4-4-4--4-4-|-5--5--5-5-5--5---
-5--5--5-5-5--5-5-5-|-4--4--4-4-4--4-4--|-5--5--5-5-5--5-5-|-5--5--5-5-5--5---
-6--6--6-6-6--6-6-6-|-5--5--5-5-5--5-5--|-6--6--6-6-6--6-6-|-6--6--6-6-6--6---
-6--6--6-6-6--------|-6--6--6-6-6--6-6--|-6--6--6-6-6----6-|-7--7--7-7-7--7---
-4--4--4-4-4--------|-3--3--3-3-3--3-3--|-4--4--4-4-4------|-7--7--7-7-7------
--------------------|-------------------|------------------|-5--5--5-5-5------

Waitin'...
 E
-0-0-0---0-0-0-0-0--|-0-0-0---0--0-0-0--|
-0-0-0---0-0-0-0-0--|-0-0-0---0--0-0-0--|
-1-1-2-*-1-1-1-1-1--|-1-1-2-*-1--1-1-1--|
-2-2-2-*-2-2-2-2-2--|-2-2-2-*-2--2-2-2--|
-2-2-2-*-2-2-2-2-2--|-2-2-2-*-2--2-2-2--|
-0-0-0---0-0-0-0-0--|-0-0-0---0--0-0-0--|

Chorus
 C#mE
   Leavin' on a Southern train
 Asus2G#sus4G#
Only yesterday you lied 
 AE
Promises of what I seemed to be
 Asus2G#sus4G#
Only watched the time go by 
 AE
All of these things you said to me























A Asus2 C#m E G# G#sus4
variations - click chord images
Transpose chords:
Tuning:
Cool service:
View: Size:
A  A  A
Rating:
Layout:
  • Currently 1.3/5 Stars.
  • 1
  • 2
  • 3
  • 4
  • 5
 
Accuracy:
  • Currently 2.7/5 Stars.
  • 1
  • 2
  • 3
  • 4
  • 5
 
click stars to rate
Chordie recommends:
Learn how to play guitar at JamPlay.com
Songbook:
Login to add this song to your songbook
Support the artist
Preview/buy this song
MSN Music
Why this non-profit ad?

 
login to add comments/video/corrections