Song For Sleeping

Stone Temple Pilots

-----2--------|

-2h4----------|
--------3-----|
--------------|
--------------|
--------------|
 F#
     Finally I've met you
The day has come
You're more than beautiful
And you're my son
 E
     I don't deserve this
I never thought it could be
 F#
     Quite like the moment
When you first smiled at me
 E
     A toothless, wonderful feeling
Like I'd never seen
 F#
     It's you, Noah, it's you

 DaddADaddG#DaddA
     And when you lie down to sleep
I'll protect you
 DaddG#
     From the demons of the night
 F#GAB
      While I'm watching you grow
 BA
     I'll pray
 E
     There's so much I could teach you
 B
     If you only have the time
 A
     Pray 
 E
     There's so much God can teach you
 B
     If you only have the time
 F#
     So will you tell me the little things?
What does God look like?
And angels' wings?
 E
     I don't remember these things
So would you teach them to me?
 F#
     So for the moment
I'll watch you breathe
 E
     And when you wake up in the morning
And I pour the coffee
 F#
     You're always smiling sweetly

 DaddADaddG#DaddA
     And when you lie down to sleep
I'll protect you
 DaddG#
     From the demons of the night
 F#GAB
      While I'm watching you grow
 BA
     I'll pray
 E
     There's so much I could teach you
 B
     If you only have the time
 A
     Pray 
 E
     There's so much God can teach you
 B
     If you only have the time

solo
 F#DaddADaddG#
--------------------------------------------------------|
-s7-s6-s6-----------------------------7s9-7s10-9--12s9--|
-------------------6---------6--------------------------|
----------8-8--6s8-----8-6s8----6ss8--------------------|
--------------------------------------------------------|
--------------------------------------------------------|

 DaddADaddG3F#GA
------s9-7-5------7s9-7-5--------------------------------|
-9-10-------9-10---------s9-s9-7-10--9h7---7s9-----------|
------------------------------------------6--------------|
---------------------------------------------------------|
---------------------------------------------------------|
---------------------------------------------------------|

 BA
     I'll pray
 E
     There's so much I could teach you
 B
     If you only have the time
 A
     Pray 
 E
     There's so much God can teach you
 B
     If you only have the time
 BA
      I'll pray
 E
     There's so much I could teach you
 B
     If you only have the time

DaddA= x x 0 2 3 5
DaddG#= x x 0 2 3 4
B= 7 9 9 8 0 0
A= 5 7 7 6 0 0
G= 3 5 5 4 0 0 or 3 5 5 4 3 3
F#= 2 4 4 3 0 0 or 2 4 4 3 2 2
E= 0 2 2 1 0 0


A B DaddA DaddG# E F# G
variations - click chord images
Transpose chords:
Tuning:
Cool service:
View: Size:
A  A  A
Rating:
Layout:
  • Currently 0/5 Stars.
  • 1
  • 2
  • 3
  • 4
  • 5
 
Accuracy:
  • Currently 0/5 Stars.
  • 1
  • 2
  • 3
  • 4
  • 5
 
click stars to rate
Chordie recommends:
Learn to play this song & others via video guitar lessons at JamPlay.com
Songbook:
Login to add this song to your songbook
Support the artist
Preview/buy this song
MSN Music
Why this non-profit ad?

 
login to add comments/video/corrections