Wedding Song

Paul Stookey

 ----
      Wedding Song (There Is Love)
Paul Stookey
(Transcribed from the 25th Anniversary video)
The transcription is my own, as are any mistakes.
(Note: I don't have the original recording, so I
don't know how closely this video version is to the
original.)
Note: While the song is sung in the key of E, Paul
tunes his 12-string down 3 half-tones and plays it using
G fingerings as seen on their 25th Anniversary video.
The good news is that it's fairly easy to play this way.
The bad news is that you tune all day if you want to play
along with the recording.
(Note to the note: in the video Paul's 12-string is actually
tuned down 5(!) half-tones and then he capos up two to get
the resulting 3 half-tone drop. Talk about loose strings!)
(Tune down 3 half-tones from standard to play with recording)
C# F# B E G# c#
Finger     -- -- -- -- -- --

G: 3 2 0 0 3 0 (and run with 320010, 320000)
A: 0 0 2 2 2 0
Asus2: 0 0 2 2 0 0
Cmaj7: 0 3 2 0 0 0 (and run with 032200)
C(addD): 0 3 2 0 3 0
Gsus4add9: 3 0 0 2 1 0
D/F#: 2 0 0 2 3 2
Em: 0 2 2 0 0 0
f#: 2 0 0 0 0 0 (bass note used between Em and G)
C*: 0 3 2 0 1 0 (see note below)
C: 0 3 2 0 1 0 (C-C/B-Am7-Am7/G = running bass.
C/B: 0 2 0 0 1 0 Running bass notes are c-b-a-g
Am7: 0 0 2 0 1 0 into the f# of the D/F# chord)
Am7/G: 3 0 2 0 1 0
Last G: 3 2 0 0 0 3 (final chord of song)
Picked with the thumb and two fingers using the following
basic pattern. The 1st string is hardly ever played.
-------------------
-----------2-------
-----1-------------
--------T----------
-------------------
--T----------------

12-string vs 6-string note:
You're not going to get the same sound with a 6-string as you
would with the 12-string, and more than just the lack of fullness.
If you play on a 6-string you will think that Paul is playing
notes on the 1st and 2nd strings that are in fact being played by
the thumb hitting the high-octave bass strings. Examples of this
are the first C note of the Cmaj7 run, the E note in the A-Asus2
and the G note in the C* as described below.
C* note: picked as follows:
-----------2-------    Paul plays this as a standard open C chord.
-----1-------------    However, the thumb striking the 3rd string
--------T----------    emphasizes the high-G string on the 12-string
-------------------    guitar. If you are playing this on a 6-string
--T----------------    guitar you can get a similar sound by playing
-------------------    a CaddG (032013) rather than (032010).

Now for the song...
G (for a few bars, then to intro)
e-|-------------------------------------------------------
B-|----------3-----------3-----------3-----------3--------
G-|----0-----------0-----------0-----------0--------------
D-|-------0-----------0-----------0-----------0-----------
A-|-------------------------------------------------------
E-|-3-----------3-----------3-----------3-----------------

Intro:
 G
e-|-------------------------------------------------------
B-|----------3-----------1-----------0--------------------
G-|----0-----------0-----------0-----------0--------------
D-|-------0-----------0-----------0-----------0-----------
A-|-------------------------------------------------------
E-|-3-----------3-----------3-----------3-----------------

 AAsus2
e-|-------------------------------------------------------
B-|-----------2-----------0-----------0-------------------
G-|-----2-----------2-----------2-----------2-------------
D-|--------2-----------2-----------2-----------2----------
A-|--0-----------0-----------0-----------0----------------
E-|-------------------------------------------------------

Cmaj7 (Paul uses index finger to fret 3rd string)
e-|-------------------------------------------------------
B-|----------0-----------------0-----------0--------------
G-|----0-----------0-----2-----------0--------------------
D-|-------2-----------2-----------2----------2------------
A-|-3-----------3-----------3-----------3-----------------
E-|-------------------------------------------------------

G Gsus4add9 into verse...
e-|-------------------------------------------------------
B-|----------0h1-----------1-----------1-----------1------
G-|----0-----------2-------------2-----------2------------
D-|-------0-----------0-------------0-----------0---------
A-|-------------------------------------------------------
E-|-3-----------3-------------3-----------3---------------

 GD/F#
  He is now to be among you at the calling of your hearts
 C(addDG
Oooo rest assured this troubadour is acting on His part
 D/F#C(addDG
The union of your spirits here has caused Him to remain
Em f# G D/F#
For whenever two or more of you are gathered in His name
C* (intro)
There is love - - there is love...
 GD/F#C(addDG
Well a man shall leave his mother and a woman leave her home
Em f# G D/F#
They shall travel on to where the two shall be as one
 GD/F#C(addDG
As it was in the beginning - is now and til the end
Em f# G D/F#
Woman draws her life from man and gives it back again
C* (intro)
And there is love - - there is love...
 CC/BAm7Am7/GD/F#G
Oh then what's to be the reason      for becoming man and wife
 CC/BAm7Am7/GD/F#G
Is it love that brings you here       or love that brings you life
 GD/F#C(addDG
For if loving is the answer then who's the giving for
Em f# G D/F#
Do you believe in something that you've never seen before
C* (intro)
Oh, there is love - - oh there is love...
G D/F# C(addD) G Em f# G D/F#
(Humming...........................)
 GD/F#C(addDG
Yes the marriage of your spirits here has caused Him to remain
Em f# G D/F#
For whenever two or more of you are gathered in His name
C* (intro) G
There is love - - there is love...


A Am7 Am7/G Asus2 C C/B D/F# G
variations - click chord images
Transpose chords:
Tuning:
Cool service:
View: Size:
A  A  A
Rating:
Layout:
  • Currently 3/5 Stars.
  • 1
  • 2
  • 3
  • 4
  • 5
 
Accuracy:
  • Currently 4/5 Stars.
  • 1
  • 2
  • 3
  • 4
  • 5
 
click stars to rate
Chordie recommends:
Learn to play songs at Jamplay.com with video guitar lessons
Songbook:
Login to add this song to your songbook
Support the artist
Preview/buy this song
MSN Music
Why this non-profit ad?

 
login to add comments/video/corrections