Guitar Tabs, Chords and Lyrics


I Am What I Am Thank God  Storm Large

e--------------------------------------------------------------|


B---6~--3-2-1~--0-------3-2-1~--------3-2-1~-------------------|


G-----------------2-1~---------0-2-1~---------0-2-1~-----------|

D--------------------------------------------------------------|
A--------------------------------------------------------------|
E--------------------------------------------------------------|
[A]That's [C]not what I [E]am
And no a princess [E]I will [E]never [E]be
My [E]fingernails are [E]chipped, my mind is [E]dirty
E D, C#
Everything about me just about screams
I am the [C]anti-[B]deb[A]uta[E]nte
And I'm the [A]child of a [C]common [E]man
Thank [A-C]God, [E]I [D]am [C]what I [B]am, [E]hell [D]yeah   [C-B]

And all my [E]life I tried to [E]be what was ex[E]pected of [E]me
And that led to [E]loneliness and[D] misery
C#, C B A E
And all the bullshit lying inbetween
Well, [A]no [C]thank you, [E]man

Say..
Thank [A-C]God, [E]I [D]am [C]what I [B]am, [E]hell [D]yeah   [C-B]   (x2)


e------------------------------------------------|
B----------------------------------8-------------|
G--7-9-9-7-9--7-9-9-7-9--7-9-9-7-9---9-9---------|
D------------------------------------------------|
A------------------------------------------------|
E------------------------------------------------|
e------------------------------------------------|
B---------------------------------------8--------|
G--7-9-9-7-9--7-9-9-7-9--7-9-9-7-9--9-9---9------|
D------------------------------------------------|
A------------------------------------------------|
E------------------------------------------------|
e--7--9---10--12----------------------8--13-\-10-|
B--8--10--11--13--9-----10-----12--------15-\-11-|
G--9--11--12--14----9-9----9-9----9-9----15-\-12-|
D--9--11--12--14-------------------------15-\-12-|
A--7--9---10--12-------------------------13-\-10-|
E--7--9---10--12-------------------------13-\-10-|



E-E ...

(Play intro through this part)
It was not ever my scene
to be homecoming queen
or hang on the sleeve of anybody  [A]   [C]

So Thank [A]God,[C]

[E]I [D]am [C]what I [B]am, [E]hell [D]yeah [C-B]    (repeat)

Important: The song above is NOT stored on the Chordie server. The original song is hosted at www.guitaretab.com. Chordie works as a search engine and provides on-the-fly formatting. Chordie does not index songs against artists'/composers' will. To remove this song please click here.

Text color:
Chord color:
Chord grids: 
Font size:    
Page size: 

A B C D E
variations - click chord images

Login - add to songbook

Transpose chords

Tuning

Rating click stars to rate

Layout
Accuracy

SHARE PAGE  




You need to log in to post comments