Guitar Tabs, Chords and Lyrics


Welcome To Our New War   Story Of The Year



-------------------------------------------------------------------------------
	           WELCOME TO OUR NEW WAR - Story of the Year
                           Track 13 from "The Black Swan"
-------------------------------------------------------------------------------
Tabbed by: MrMacc
email: macciojc@gmail.com


This is my first tabbing attempt.  I happened upon this song recently and I want so 
to find a heavily distorted electric system to wail this song out on.

This isn't the whole song, I don't have the harder parts down at this point, but I have 
and pieces of the whole song.  Feel free to use this in making a better tab, like I 
I'm new at this so just have fun with it if it isn't to horrible to understand.

Tuning: It's tuned DOWN 3 frets (The 4th string should be a 'B'), I'm almost certain, I 
am not sure what that tuning in particular is called.

Intro

e|---------------------------------------------------------------------------|
B|---------------------------------------------------------------------------|
G|---9-9-9-9-9-9-9/11-11/13------13/14----11---------------------------------|
D|---X-X-X-X-X-X-X--X--X--X-------X--X-----X---------------------------------|
A|---7-7-7-7-7-7-7-/9--9/11------11/12-----9---------------------------------|
E|---0-0-0-0-0-0-0--0--0--0-------0--0-----0---------------------------------|

e|---0-----------------------------------------------------------------------|
B|----0----------------------------------------------------------------------|
G|-----1----------/99-7---9/11--1------/99-7---9/11--1-----------------------|
D|------2---------/99-7---9/11--2------/99-7---9/11--2-----------------------|
A|-------2--------/77-5---7/-9--2------/77-5---7/-9--2-----------------------|
E|--------0------------------------------------------------------------------|

The stuff above has some other fills that appear in between the rounds that I haven't 
up on enough yet, I'm just roughing it out on my acoustic at this point.

Verse

10s and 12s, not 1s, 0s and 2s
e|-------------------------------------------------|
B|-------------------------------------------------|
G|----------------------------------12-12-14-14----|
D|----------------------------------12-12-14-14----|
A|----10121210--10121210--10121210--10-10-12-12----|
E|------------0---------0---------0----------------|

Chorus

e|-----------------------------------------------------------------------------|
B|-----------------------------------------------------------------------------|
G|----1-1-1--------------------------------------------------------------------|
D|----2-2-2----7-7-7--9-9-9----------------------------------------------------|
A|----2-2-2----7-7-7--9-9-9----------------------------------------------------|
E|-------------5-5-5--7-7-7----------------------------------------------------|

There is a really sick bridge here, but I don't have it down yet

Then back to the Verse
The next bridge is just the Verse with a different drum beat
Then back to the Chorus

Then a bunch of other stuff I haven't learned well enough yet.

The there's this little bridge/interlude thingy:

e|----------555444-------555444-------555444-------555444-------------|
B|----555333-------555333-------555333-------555333-------------------|
G|--------------------------------------------------------------------|
D|--------------------------------------------------------------------|
A|--------------------------------------------------------------------|
E|--------------------------------------------------------------------|

Then it goes into a part where it's the same notes, just chorded (I haven't figured that 
yet either).

Then through another rigamaroll of parts that I don't have down yet.

All in all, an exceptional song in my opinion, I hope you have as much fun listening to 
playing it as I am.

| /  slide up
| \  slide down
| h  hammer-on
| p  pull-off
| ~  vibrato
| +  harmonic
| x  Mute note


Important: The song above is NOT stored on the Chordie server. The original song is hosted at www.guitaretab.com. Chordie works as a search engine and provides on-the-fly formatting. Chordie does not index songs against artists/composers will. To remove this song please click here.

This song is displayed as text-only. Transposing and tuning is only available for chordpro-songs.

Login - add to songbook

Rating click stars to rate

Layout
Accuracy

SHARE PAGE  




You need to log in to post comments